Johnny Cash - Man Comes Around Chords & Tabs

 

Man Comes Around Chords & Tabs

Johnny Cash Chords & Tabs

Version: 1 Type: Tab 0 ratings
1 star 2 stars 3 stars 4 stars 5 stars
comments

Man Comes Around Tab

This is the basic chords, play them as they come, youŽl get it.
Listen to the song to get how to play the chords.

verse                  >    >   > >
-----------------|-----0-|--1|--3|0|
-----------------|-----1-|--1|--3|1|
--x0----x0----x0-|-----2-|--2|--0|0|
-xx2xx-xx2xx-xx2-|-----2-|--3|--0|2|
-xx3xx-xx3xx-xx3-|-320-0-|--3|--2|3|
------3-----3----|-------|1-1|3-3--|
pm    .     .
[ Tab from: http://www.guitartabs.cc/tabs/j/johnny_cash/man_comes_around_tab.html ]
chorus
 >
-0-|------3-3-3-3-----3-3-3-3-|
-1-|----1-1-1-1-1---1-1-1-1-1-|
-0-|--0-0-0-0-0-0-0-0-0-0-0-0-| X2
-2-|--2-2---------2-2---------|
-3-|--3-----------3-----------|
---|--------------------------|


 >       >
-0-|-1-0-3|
-1-|-1-1-3|
-0-|-2-0-0|
-2-|-3-2-0|
-3-|-3-3-2|
---|-1---3|

Listen to the song to get how much to play the G chord.

    > >
3---1|1|
3---1|1|
0---0|2|
0---2|3|
2-023|3|
3----|1|

Then play C like the verse.


Thats all the parts in the song, listen to get how to play it, good luck!
//isdocka@hotmail.com
Comments