Johnny Cash - I Walk The Line Chords & Tabs

 

I Walk The Line Chords & Tabs

Johnny Cash Chords & Tabs

Version: 1 Type: Tab 0 ratings
1 star 2 stars 3 stars 4 stars 5 stars
comments

I Walk The Line Tab

   
Tabbed by the slayer/simon cade

Normal tuning e,B,G,D,A,e
Sorry its only the intro but you can get the rest
[ Tab from: http://www.guitartabs.cc/tabs/j/johnny_cash/i_walk_the_line_tab.html ]
INTRO RIFF
1|------------------------------------|
2|------------------------------------|
3|------------------------------------|
4|--------------------0---0-0---------|
5|-------0----0-0-2-4---0-----4-2-0---|
6|-0-2-4---0------------------------0-|

1|----------------------------------------------------|
2|----------------------------------------------------|
3|----------------------------------------------------|
4|----------------------------------------------------|
5|-0-0-------2---2-------2-2-2--2-------2---2---2---2-|
6|-----4-2-0---0---0-2-4----------4-2-0---0---0---0---|

HOPE THAT SATISFIES YOU
     ENJOY
Comments