Johnny Cash - Hurt Chords & Tabs

 

Hurt Chords & Tabs

Johnny Cash Chords & Tabs

Version: 8 Type: Tab 0 ratings
1 star 2 stars 3 stars 4 stars 5 stars
comments

Hurt Tab

   
Song: Hurt (Nine Inch Nails cover)
by: Johnny Cash 
Album: The Man Comes Around (Released 2002 by American Recordings)
Music & Lyrics: Trent Reznor

TAB by: _Mast3R_7 (01-07-05)
Mast3r7@hotmail.com

Standard E Tuning   

I have seen a few tabs for this song on the net, but most seem to have the chorus wrong.
If you play this tab while listening to the song, it will all make sense. 
The verse (C, D, A-mi) gets played ten times, with A minor change on the tenth time (C, D, G).

The Chorus is (A-mi, F, D, G) x2 (A-mi F, G, G) then (A-mi, F, G, A-mi).  
The chorus is a little different at the end of the song, so watch for the difference on the last chorus.  

It's all here for the main guitar.  There is a second guitar on the song that plays 
variations of the same chords, so grab a buddy and experiment.

Please try it and rate it.



       A-mi               


E|-------0-----|
B|-------1-----|
G|----2--------|
D|-------------|
A|--0----------|
E|-------------|

Verse

        C             D            A-mi                   9 times

E|--------0-----|------0-----|--------0------------------|
B|--------1-----|------3-----|--------1------------------|
G|------0-------|----2-------|------2--------------------|
D|--------------|--0---------|---------------------------|
A|----3---------|------------|----0----------------------|
E|--------------|------------|---------------------------|


      C          D                 G                      once 

E|----0----------0-----------|-----3---------------------|
B|----1----------3-----------|-----3---------------------|
G|---0---------2-------------|-----0---------------------|
D|-----------0---------------|-----0---------------------|
A|--3------------------------|-----2---------------------|
E|---------------------------|-----3---------------------|

Chorus
 
       A-mi           F             D             G       2  times

E|------0------|------1------|------0------|------3------|
B|------1------|------1------|------1------|------3------|
G|------2------|------2------|------0------|------0------|
D|------2------|------3------|------2------|------0------|
A|------0------|------3------|------3------|------2------|
E|-------------|------1------|-------------|------3------|

       A-mi           F             G             G                 
[ Tab from: http://www.guitartabs.cc/tabs/j/johnny_cash/hurt_tab_ver_8.html ]
E|------0------|------1------|------3------|------3------|
B|------1------|------1------|------3------|------3------|
G|------2------|------2------|------0------|------0------|
D|------2------|------3------|------0------|------0------|
A|------0------|------3------|------2------|------2------|
E|-------------|------1------|------3------|------3------|

 

       A-mi           F             G            A-mi              

E|------0------|------1------|------3------|-------0-----|
B|------1------|------1------|------3------|-------1-----|
G|------2------|------2------|------0------|-----2-------|
D|------2------|------3------|------0------|-------------|
A|------0------|------3------|------2------|----0--------|
E|-------------|------1------|------3------|-------------|



Verse

        C             D            A-mi                   9 times

E|--------0-----|------0-----|--------0------------------|
B|--------1-----|------3-----|--------1------------------|
G|------0-------|----2-------|------2--------------------|
D|--------------|--0---------|---------------------------|
A|----3---------|------------|----0----------------------|
E|--------------|------------|---------------------------|


      C          D                 G                      once 

E|----0----------0-----------|-----3---------------------|
B|----1----------3-----------|-----3---------------------|
G|---0---------2-------------|-----0---------------------|
D|-----------0---------------|-----0---------------------|
A|--3------------------------|-----2---------------------|
E|---------------------------|-----3---------------------|


Chorus
 
       A-mi           F             D             G       2  times

E|------0------|------1------|------0------|------3------|
B|------1------|------1------|------1------|------3------|
G|------2------|------2------|------0------|------0------|
D|------2------|------3------|------2------|------0------|
A|------0------|------3------|------3------|------2------|
E|-------------|------1------|-------------|------3------|

        A-mi          F             G             G       3 times

E|------0------|------1------|------3------|------3------|
B|------1------|------1------|------3------|------3------|
G|------2------|------2------|------0------|------0------|
D|------2------|------3------|------0------|------0------|
A|------0------|------3------|------2------|------2------|
E|-------------|------1------|------3------|------3------|

 

       A-mi           F             G          Silence  

E|------0------|------1------|------3------|-------------|
B|------1------|------1------|------3------|-------------|
G|------2------|------2------|------0------|-------------|
D|------2------|------3------|------0------|-------------|
A|------0------|------3------|------2------|-------------|
E|-------------|------1------|------3------|-------------|


END
Comments