Johnny Cash - Hurt Chords & Tabs

 

Hurt Chords & Tabs

Johnny Cash Chords & Tabs

Version: 7 Type: Tab 0 ratings
1 star 2 stars 3 stars 4 stars 5 stars
comments

Hurt Tab

                                    "Hurt"
                                 by Johnny Cash

this song freaking rocks. Johnny redid it during the end of his life. first of all,
i want to give credit to Nine Inch Nails for writing the song. the one tab that's
rated five stars is wrong. he got the lyrics and music wrong, especially the music.
the lyrics are changed from the Nine Inch Nails version, but the guitar is the exact
same except you strum the chords after picking them instead just picking. anywho yeah,
i tabbed this song perfectly  ^_^  and there is nothing wrong with it. i am a happy chica!! here you go.

[ Tab from: http://www.guitartabs.cc/tabs/j/johnny_cash/hurt_tab_ver_7.html ]
 play this riff during during the verses
e|---------------------------|
b|----------------5------7---|
g|-----10---------7------9---|
d|---9-9--------7-7----9-9---|
a|--9--9-------5--7---7--7---|
d|-9---9---------------------|


         play this during the chorus
e|------------------------------------------------|
b|------------------------------------------------|
g|-------------------------------------7--7--7--7-|
d|-7--7--7--7--7--7--7--7--7--7--7--7--7--7--7--7-|
a|-7--7--7--7--9--9--9--9--5--5--5--5--5--5--5--5-|
d|-7--7--7--7--9--9--9--9--5--5--5--5--0--0--0--0-|



and that's it. a simple, beautiful song. this tab is 100% correct, i played my
guitar along with the music video to make sure i was right, i'm tuned up perfectly,
i am correct. rock on.
Comments