Johnny Cash - Ghost Riders In The Sky Chords & Tabs

 

Ghost Riders In The Sky Chords & Tabs

Johnny Cash Chords & Tabs

Version: 2 Type: Tab

Ghost Riders In The Sky Tab

GHOST RIDERS IN THE SKY

e---------------------------------------------------------|
b---------------------------------------------------------|
g---------------------------------------------------------|
d---------------------------------------------------------|             
a-------0---0-----0---0----0---0-----0---0----------------|             
e-0-0-3---0---0-3---0---0-3--0---0-3---0------------------|


e--------------------------------------------------------------------|
b--------------------------------------------------------------------|
g--------------------------------------------------------------------|
d-------------------------------------------------0-2-2-2-0----2-----|
a----0-0-0-2-3-3-3-0---------------0-0-0-2-3-3-3-------------3-------|
e--0----------------3-3-3-0-3----0-----------------------------------|

[ Tab from: http://www.guitartabs.cc/tabs/j/johnny_cash/ghost_riders_in_the_sky_tab_ver_2.html ]
e--------------------------------------------------------------------|
b--------------------------------------------------------------------|
g------2-2-2-2-------------------------------------------------------|
d--2-2--------2-2-2-2-2-0--------------------------------------------|
a-------------------------3-0-0-0-------3-3-3----2-3-3-00---0--------|
e--------------------------------1-11-1-------------------3----------|

(play all the above twice, then the bottom}2 times

e------------------------------------------------------------|
b------------------------------------------------------------|
g-------0-2-2-2-2--------------------------------------------|
d-2-2-2-----------2-----------------------2------------------|
a------------------0-0-0-3-3-3-0------3-3---0-0-0-3-3-3-0----|
e-------------------------------1-1-1------------------------|

tabs written by Katiers.(15) 
JOHNNY CASH RULES (he may be gone, but his music remains forever)