Johnny Cab - Beer Song Chords & Tabs

 

Beer Song Chords & Tabs

Johnny Cab Chords & Tabs

Version: 2 Type: Bass Tab 0 ratings
1 star 2 stars 3 stars 4 stars 5 stars
comments

Beer Song Bass Tab

Song: Beer! Song
Band: Johnny Cab

Tabbed By: squid288@aol.com



> = means strum note a few times

Verse:

G:-----------------5------------------------------------------
D:--3>--7>--5>--7-----7--5------------------------------------
A:------------------------------------------------------------
E:------------------------------------------------------------

Chorus:
[ Tab from: http://www.guitartabs.cc/tabs/j/johnny_cab/beer_song_btab_ver_2.html ]
G:------------------------------------------------------------
D:------------------------------------------------------------
A:--5>------5>------5>----------------------------------------
E:------5>------5>------5>--7--5--3--3--3---------------------



Bass Solo:

G:---------------------4-----------------------------------4-
D:---------6-----4--7--------------6-----------6-----4--7----
A:---4--7-----5--------------4--7--------4--7-----5----------
E:-5----------------------5-----------5----------------------


G:----------4-----------------------8-----------4-------------
D:----4--7--------------6-----6--9--------4--7--------------6-
A:-5--------------4--7-----0H7---------5--------------4--7----
E:-------------5-----------------------------------5----------


G:---------
D:-66666---  
A:--------- 
E:---------
Comments