Johnnie Taylor - Disco Lady Chords & Tabs

 

Disco Lady Chords & Tabs

Johnnie Taylor Chords & Tabs

Version: 1 Type: Bass Tab 0 ratings
1 star 2 stars 3 stars 4 stars 5 stars
comments

Disco Lady Bass Tab

Disco Lady
Johnnie Taylor

4/4 time, standard tuning.

Intro
||-------------|---------------|-------------|---------------|
||-0-----------|-0-------------|-0-----------|-0-------------|
||----2--0--2--|---2-R-----0-2-|----2--0--2--|---2-R-----0-2-|
||-------------|---------1-----|-------------|---------1-----|

(Shake it up...)
|--------------|---------------|-------------|----------------|
|*-0-----------|-0-------------|-0-----------|-0-------------*|
|*----2--0--2--|---2-R-----0-2-|----2--0--2--|---2-R-----0-2-*|x8
|--------------|---------1-----|-------------|---------1------|

(Shake it, baby...)
|-76-4-1-46-4--|-76-4-6-1--4--|-76-4-1-46-4--|-76-4-6-1-R---|
|--------------|--------------|--------------|--------------|
|--------------|--------------|--------------|--------------|
|--------------|--------------|--------------|--------------|
[ Tab from: http://www.guitartabs.cc/tabs/j/johnnie_taylor/disco_lady_btab.html ]
|-------------|-------------|-------------|-------------|
|-------------|-------------|-------------|-3-----------|
|-3---3-3-----|-3---3-3-----|-----------3-|-----3-------|
|-----------4-|-----------4-|-1---1-1-----|-------1---1-|

|-------------|-------------|-------------|-------------|
|-------2-----|-------2---2-|-------------|-------------|
|-----2-----2-|-----2-------|-3---3-3-----|-3---3-3---3-|
|-0-----------|-0-----------|-----------3-|-------------|

(Hey, sexy lady...)
|---------------|--------------|   |---------------|
|*-0------------|-0-----------*|   |-0-------------|
|*---2-R----0-2-|----2--0--2--*|x8 |---2-R-----0-2-|
|---------1-----|--------------|   |---------1-----|

 Repeat and fade                               Then
|--------------|---------------|--------------|-----------||
|*-0-----------|-0-------------|-0-----------*|-0--R------||
|*----2--0--2--|---2-R-----0-2-|----2--0--2--*|-----------||
|--------------|---------1-----|--------------|-----------||


Whole note:  |-1--------|
Dotted half: |-1------|
Half note:   |-1----|
Quarter note:|-1--|
Eighth note: |-1-|
Sixteenth:   |-1|
R=rest (rests work the same way)
New measure: |-
             |-
             |-
             |-

Questions, comments: sk8now22@sbcglobal.net
Comments