Johnathan Rice - Acrobat Chords & Tabs

 

Acrobat Chords & Tabs

Johnathan Rice Chords & Tabs

Version: 1 Type: Tab 0 ratings
1 star 2 stars 3 stars 4 stars 5 stars
comments

Acrobat Tab

-----------------------------------------------------------------------------
                      Acrobat - Jonathan rice
-----------------------------------------------------------------------------
Tabbed by: Noah Sturm
Email:

Johnathan rice recently released an Ep entitled "extended player 24/25"
and "Acrobat" is the single released off of it
Johnathan performed on last call with carson daly a few months ago and the 
episode reran recently

Tuning: standard with capo on 3rd fret
(all notes relative to capo)

e|--------------------------------------------------------------------------|
B|-----------0-0-0----------------------------------------------------------|
G|---0--0-0--0-0-0---0-0-0--0-0--0--0---------------------------------------|
D|---0--0-0--2-2-2---0-0-0--2-2--0--0---------------------------------------|
A|---x--x-x--3-3-3---x-x-x--2-2--x--x---------------------------------------|
E|---3--3-3----------3-3-3--0-0--3--3---------------------------------------|
[ Tab from: http://www.guitartabs.cc/tabs/j/johnathan_rice/acrobat_tab.html ]
e|--------------------------------------------------------------------------|
B|--0-0-0-0-----0-0-0-----------------------------------------0-------------|
G|--0-0-0-0--0--0-0-0--------0--0--0-0----0----0--------------0--------0----|
D|--2-2-2-2--0--2-2-2--------2--2--0-0----0----0--------------2--------0----|
A|--3-3-3-3--x--3-3-3--------2--2--x-x---------x--------------3--------x----|
E|-----------3---------------0--0--3-3--3------3-----------------------3----|
  and if he should slip      and his body will break and his soul         
  he will surely die                                             will fly

e|--------------------------------------------------------------------------|
B|--0-0----0------0-0--------------0-0----0-0--------------------0----------|
G|--0-0----0------0-0------0-0-----0-0----0-0----0--0--0---------0----------|
D|--2-2----0------2-2------0-0-----0-0----2-2----2--2--2---------0----------|
A|--3-3----x------3-3------x-x-----x-x----3-3----2--2--2---------x----------|
E|---------3---------------3-3-----3-3-----------0--0--0---------3----------|
  into the night where the spirits soar  he will leave this world

these are the chords as they are played in corespendence with the words
chords may be played more times than appears in this tab.
don't forget the capo on the third fret

-thanks
Comments