John Williams - Satie - Gnossienne No 1 Chords & Tabs

 

Satie - Gnossienne No 1 Chords & Tabs

John Williams Chords & Tabs

Version: 1 Type: Tab 0 ratings
1 star 2 stars 3 stars 4 stars 5 stars
comments

Satie - Gnossienne No 1 Tab

   
Satie - Gnossienne no 1
Transcribed from a performance by John Williams 
Tabbed by Claire Winter
Email mr_claire@hotmail.com

The song is divided into sections. If you need it, the order to play them is listed at
the end of the tab.



A:
|----7-10-9-7-7p6---7p6-----7-10-9-7-11h12---11h12---|
|----5------5-----5-----5---5------5-------0-------0-|
|----0------0-----0-----0---0------0-------9-------9-|
|----------------------------------------------------|
|----------------------------------------------------|
|--0----------0-----------0-----------0--------------|

|----7-10-9-7-7p6---3p2---0h2-0h2-----3p2-2p0------------|
|----5------5-----5-----0-----3-----3-----5----5---5---5-|
|----0------0-----0-----0-----4-----4-----0----0---0---0-|
|--------------------------------------------------------|
|---------------------------2----------------------------|
|--0------------0-----------------------0--------0-------|
[ Tab from: http://www.guitartabs.cc/tabs/j/john_williams/satie_gnossienne_no_1_tab.html ]
B:
|--3h5---3p2---3h5---3p2---3p2-2p0-------------|
|------1-----1-----1-----1-----5-----5---5---5-|
|------------------------------0-----0---0---0-|
|------2-----2-----2-----2---------------------|
|--0-----------0-------------------------------|
|--------------------------0-----------0-------|

C:
|----7-9-11-12-14-18-14-12-14p12----14p12---12p11---8p7---|
|------0-----------0-------0------0-------0-------0-----0-|
|------0-----------0-------0------0-------0-------0-----0-|
|---------------------------------------------------------|
|---------------------------------------------------------|
|--0--------------------0-----------0---------------0-----|

|-7p6---3p2-2p0--------------|
|-----0-----5-----5---5---5--|
|-----0-----0-----0---0---0--|
|----------------------------|
|----------------------------|
|-------0-----------0--------|

D:
|------7-10-9-7-7p6------------7-10-9-7-11h12-------|
|-----5-------5-----5----5----5-------5-------0---0-|
|----0--------0-----0----0---0--------0-------9---9-|
|---------------------------------------------------|
|---------------------------------------------------|
|--0------------0----------0----------0-------------|

A A B B C C B B D D B B C C B B
Comments