John Prine - Silent Night All Day Long Chords & Tabs

 

Silent Night All Day Long Chords & Tabs

John Prine Chords & Tabs

Version: 1 Type: Tab 0 ratings
1 star 2 stars 3 stars 4 stars 5 stars
comments

Silent Night All Day Long Tab

   
Intro:
__G___________________________C________________G_____D___G___
E|------------------|-----------|------------|------------|--|
B|------------------|-12-10-8-5-|-5-7-8-10-8-|------------|--|
G|------------7-9-7-|-----------|------------|-7-4-5-4-2-0|--|
D|-5--7--7s9--------|-----------|------------|------------|--|
A|------------------|-----------|------------|------------|--|
E|------------------|-----------|------------|------------|--|

Th[G]ere's a pine tree in a window in a house on a h[D]ill
With a tree top angel sitting perfectly st[G]ill
She's watching the shoppers w[G7]alk through the sn[C]ow
With their arms full of tre[G]asures and he[D]arts all ag[G]low

Chorus:
We held ha[C]nds and stared at the lights on the tr[G]ee
As if Christmas was invented just for you and for [D]me.
When the a[G]ngel on the treetop req[G7]uested a s[C]ong.
We sang Silent Ni[G]ght a[D]ll day lo[G]ng
[ Tab from: http://www.guitartabs.cc/tabs/j/john_prine/silent_night_all_day_long_tab.html ]
The[G]re is a family that's gathering in some living ro[D]om.
Dinner on the table that's been cooking since n[G]oon.
The stockings on the mantle are ha[G7]nging with c[C]are.
While everyb[G]ody is sa[D]ying their pra[G]yers.

Repeat Chorus:

Instrumental
__G___________________________C________________G_____D___G___
E|------------------|-----------|------------|------------|---|
B|------------------|-12-10-8-5-|-5-7-8-10-8-|------------|---|
G|----------7-9-7-|-----------|------------|-7-4-5-4-2-0|-----|
D|-5--7--7-9------|-----------|------------|------------|-----|
A|------------------|-----------|------------|------------|---|
E|------------------|-----------|------------|------------|---|

Th[G]ere's a room out there somewhere with a woman in a ch[D]air
With memories of childhood still lingering th[G]ere.
How pretty the paper, the li[G7]ghts and the s[C]now.
How precious those m[G]emories of lo[D]ng long a[G]go.

Repeat Chorus:

Ending:

When the an[C]gel on the treetop requested a so[G]ng.
We sang Silent Night a[D]ll day l[G]ong
Comments