John Paul Jones - Zooma Chords & Tabs

 

Zooma Chords & Tabs

John Paul Jones Chords & Tabs

Version: 1 Type: Bass Tab 0 ratings
1 star 2 stars 3 stars 4 stars 5 stars
comments

Zooma Bass Tab

Artist: John Paul Jones
Song: Zooma
Album: Zooma

John Paul Jones, formaly of Led Zeppelin
in 1999 made a solo album called "Zooma"
The Tempo is extremely fast, so keep up.
Enjoy, and please rate.
[ Tab from: http://www.guitartabs.cc/tabs/j/john_paul_jones/zooma_btab.html ]
Sounds/Effects
|-----------------|                                       |------------|
  ~ = viberato                                              Song Order
  h = hammer on                                           |------------|
|-----------------|                                         
                                                            Chorus x4
     Tip: This song goes preaty fast                        Riff x16
          so I would suggest to play                        Short Pause
          along to it.                                      Chorus x5
                                                            Riff x16
Chorus                                                      Short Pause
G|-----------------5--|                                     Chorus x9
D|--5h7-5h7-5h7-------|                                     Riff x16
A|--------------------|               
E|--------------------| x3            
                                                            
                                                            
G|-----------------------------|                
D|----------------------5--5-7-|                
A|--5h7-5h7-5h7---7-5-7--7-----|                
E|-----------------------------| x1               

G|-----------------5-|               
D|--5h7-5h7-5h7------|               
A|-------------------|               
E|-------------------| x5

G|-----------------------------|                
D|----------------------5--5-7-|                
A|--5h7-5h7-5h7---7-5-7--7-----|                
E|-----------------------------| x1 

Riff
G|-----------|
D|-----------|
A|--7-5-4-3~-|
E|-----------|

Enjoy, and please rate.
Comments