John Mclaughlin - Guardian Angel Chords & Tabs

 

Guardian Angel Chords & Tabs

John Mclaughlin Chords & Tabs

Version: 2 Type: Tab 0 ratings
1 star 2 stars 3 stars 4 stars 5 stars
comments

Guardian Angel Tab

   
Artist: John Mclaughlin
Title: Guardian angel
Album: ?
Transcribed by: Goatslayer
Email: Geten@thegates.com

This is my first tab .......Rate it if possible

play it in 16th notes....... maybe faster

E||---------3----------2----0-----0--------------------0------------------------|
B||-----0----------0-------------------------3----------------3----1------------|
G||---5---5------2---2----2-----2--------0---------0----------------------------|
D||-2----------0-----------------------4---4-----4---4------4-----2-------------|
A||----------------------4----3------2---------3----------2-----0---------------|
E||-----------------------------------------------------------------------------|

[ Tab from: http://www.guitartabs.cc/tabs/j/john_mclaughlin/guardian_angel_tab_ver_2.html ]
E||--------------------0-----------------------------------0------0-----2---------|
B||-----0----------0-------------0-----2---------3--------------------------------|
G||-----------3------3-------------------------4-------0--------2-----2-----------|
D||---2-----2------------------2-----2---------------4---4----------0-------------|
A||--------------------------------0-----0-1-2-----3--------3-4-------------------|
E||-2-----2-----2--------2-3-4----------------------------------------------------|


E||---------3---------5-----0-------------------------------7---------------------|
B||-----0---------0-------------------3-----3-----3---------0---------------------|
G||---5---5-----5---5-----0-------0-----------0-------------0---------------------|
D||-2---------3-----------------4---4-----4-----4--------0------------------------|
A||---------------------3-----2---------------------------------------------------|
E||-------------------------------------2------------2-3--------------------------|
                                                      H
Play this whole thing a few times then switch to another ......im only
going to tab this part because its hard to hear the other stuff because
the solo is so loud.

Not sure about the hammer on .....might not be one.
 Enjoy!
Comments