John Mayer - Your Body Is A Wonderland Chords & Tabs

 

Your Body Is A Wonderland Chords & Tabs

John Mayer Chords & Tabs

Version: 3 Type: Tab 0 ratings
1 star 2 stars 3 stars 4 stars 5 stars
comments

Your Body Is A Wonderland Tab

e------------------------------------------------      
b--17--15--12--10--86--5s79s7--17--15--13-11-15 
g--------------------------------------------      
d--------------------------------17--15--13-11-15 
a--17--15--12--10--86--5s7-9s7------------------ 
d------------------------------------------------ 
[ Tab from: http://www.guitartabs.cc/tabs/j/john_mayer/your_body_is_a_wonderland_tab_ver_3.html ]
e----------------------------------------------15--------------------
b--17--15--12--10--8--6--5s7-9s7---17--15--12------17------17----17--
g----------------------------------------------15--------------------
d----------------------------------17--15--12------17---17----17-----
a--17--15--12--10--8--6--5s7-9s7-------------------------------------
d--------------------------------------------------------------------
Comments