John Mayer - Walt Grace's Submarine Test, January 1967 Chords & Tabs

 

John Mayer Chords & Tabs

Version: 1 Type: Tab 0 ratings
1 star 2 stars 3 stars 4 stars 5 stars
comments

Walt Grace's Submarine Test, January 1967 Tab

-----------------------------------------------------------------------------
           WALT GRACE'S SUBMARINE TEST, JANUARY 1967 - John Mayer
-----------------------------------------------------------------------------


Tabbed by: Michael Gilbert
E-Mail: mjgj96@aim.com

Capo on the 6th fret (tabs are in relation to the capo)

( There is a great video out there of a guy playing it with capo on the 5th fret to go 
in sync with his voice. It would help a lot to check it out here: 
http://www.youtube.com/watch?v=IQOyA9K4K3M )

Pre-Song Part:

e|-0-0-0-0----------0-0-0-0-----------|
B|--1-1-1-1-3-3-3-3--1-1-1-1-3-3-3-3--|
G|-----------4-4-4-4----------4-4-4-4-|  x3
D|------------------------------------|
A|------------------0---0----2---2----|
E|-1---1----3---3---------------------|

|-0-0-0-0----------0-0-0-0--------5---3-|
|--1-1-1-1-3-3-3-3--1-1-1-1-------------|
|-----------4-4-4-4-------------4---4---|
|---------------------------3/5-----5---|
|------------------0---0----------------|
|-1---1----3---3------------------------|

Intro:

|----------------------------------------------------|
|-1-----1-----1------------1-----1-----1-------------|
|---0--0--0--0--0--0-2p0--0--0--0--0--0--0--0-2p0--0-|
|----2-----2-----2------2-----2-----2-----2------2---|
|-3------------------0-----3------------------0------|
|----------------------------------------------------|

|---------------------------------------------------|
|-1-----1-----1------------1-----1-----1-----1------|
|---0--0--0--0--0--0-2p0--0--0--0--0--0--0--0--0--0-|
|----2-----2-----2------2-----2-----2-----2-----2---|
|-3------------------0-----3------------------------|
|---------------------------------------------------|

Verse:

|---------------------------------------------------|
|-1-----1-----1-----1--------3-----3-----3-----3----|
|---0--0--0--0--0--0--0--0-2--2--2--2--2--2--2--2---|
|----2-----2-----2-----2--------3-----3-----3-----3-|
|-3-------------------------------------------------|
|--------------------------1-----------------1------|

|--------------------------------------------------|
|---1-----1-----1-----1-----3-----3-----3-----3----|
|-2--2--2--2--2--2--0--0--2--2--2--2--2--2--2--2---|
|------2-----2-----2-----0-----3-----3-----3-----3-|
|-0-----0-----0------------------------------------|
|-------------------3-----1-----1-----1-----1------|

|---------------------------------------------------|
|-1-----1-----1-----1--------3-----3-----3-----3----|
|---0--0--0--0--0--0--0--0-2--2--2--2--2--2--2--2---|
|----2-----2-----2-----2--------3-----3-----3-----3-|
|-3-------------------------------------------------|
|--------------------------1-----------------1------|

|--------------------------------------------------|
|---1-----1-----1-----1-----3-----3-----3-----3----|
|-2--2--2--2--0--0--0--0--2--2--2--2--2--2--2--2---|
|------2-----2-----0-----0-----3-----3-----3-----3-|
|-0-----0------------------------------------------|
|-------------3-----3-----1-----1-----1-----1------|

Chorus:

|--------------------------------------------------|
|-3--------------1-----1-----0-----0-----0-----0---|
|---2--2--2--2--0--0--0--0--0--0--0--0--0--0--0--0-|  x2
|----0-----0--2-----2-----0-----0-----0-----0------|
|-0-----------3------------------------------------|
|-------------------------3------------------------|

|--------------------------------------------------|
|----1-----1-----1-----1-----1-----1-----1-----1---|
|---0--0--0--0--2--2--2--2--0--0--0--0--0--0--0--0-|  x2
|-2-----2-----3-----3-----0-----0-----0-----0------|
|-3------------------------------------------------|
|-------------1-----------3------------------------|

|--------------------------------------------------|
|----1-----1-----1-----1-----1-----1-----3-----3---|
|---0--0--0--0--2--2--2--2--2--2--2--2--2--2--2--2-|
|-2-----2-----3-----3-----2-----2-----0-----0------|
|-3-----------------------0------------------------|
|-------------1-----------------------2------------|

|-------------------------------------------------|
|----1-----1-----1-----1-----0-----0-----1--------|
|---2--2--2--2--2--2--2--2--0--0--0--0--0--0------|
|-3-----3-----3-----3-----0-----0-----0-----0-----|
|-------------------------------------------------|
|-1-----------------------3-----------------3-----|

Intro Part:

|----------------------------------------------------|
|-1-----1-----1------------1-----1-----1-------------|
|---0--0--0--0--0--0-2p0--0--0--0--0--0--0--0-2p0--0-|
|----2-----2-----2------2-----2-----2-----2------2---|
|-3------------------0-----3------------------0------|
|----------------------------------------------------|

|---------------------------------------------------|
|-1-----1-----1------------1-----1-----1-----1------|
|---0--0--0--0--0--0-2p0--0--0--0--0--0--0--0--0--0-|
|----2-----2-----2------2-----2-----2-----2-----2---|
|-3------------------0-----3------------------------|
|---------------------------------------------------|

Verse:

|---------------------------------------------------|
|-1-----1-----1-----1--------3-----3-----3-----3----|
|---0--0--0--0--0--0--0--0-2--2--2--2--2--2--2--2---|
|----2-----2-----2-----2--------3-----3-----3-----3-|
|-3-------------------------------------------------|
|--------------------------1-----------------1------|

|--------------------------------------------------|
|---1-----1-----1-----1-----3-----3-----3-----3----|
|-2--2--2--2--2--2--0--0--2--2--2--2--2--2--2--2---|
|------2-----2-----2-----0-----3-----3-----3-----3-|
|-0-----0-----0------------------------------------|
|-------------------3-----1-----1-----1-----1------|

|---------------------------------------------------|
|-1-----1-----1-----1--------3-----3-----3-----3----|
|---0--0--0--0--0--0--0--0-2--2--2--2--2--2--2--2---|
|----2-----2-----2-----2--------3-----3-----3-----3-|
|-3-------------------------------------------------|
|--------------------------1-----------------1------|

|--------------------------------------------------|
|---1-----1-----1-----1-----3-----3-----3-----3----|
|-2--2--2--2--0--0--0--0--2--2--2--2--2--2--2--2---|
|------2-----2-----0-----0-----3-----3-----3-----3-|
|-0-----0------------------------------------------|
|-------------3-----3-----1-----1-----1-----1------|

Chorus:
[ Tab from: http://www.guitartabs.cc/tabs/j/john_mayer/walt_graces_submarine_test_january_1967_tab.html ]
|--------------------------------------------------|
|-3--------------1-----1-----0-----0-----0-----0---|
|---2--2--2--2--0--0--0--0--0--0--0--0--0--0--0--0-|  x2
|----0-----0--2-----2-----0-----0-----0-----0------|
|-0-----------3------------------------------------|
|-------------------------3------------------------|

|--------------------------------------------------|
|----1-----1-----1-----1-----1-----1-----1-----1---|
|---0--0--0--0--2--2--2--2--0--0--0--0--0--0--0--0-|  x2
|-2-----2-----3-----3-----0-----0-----0-----0------|
|-3------------------------------------------------|
|-------------1-----------3------------------------|

|--------------------------------------------------|
|----1-----1-----1-----1-----1-----1-----3-----3---|
|---0--0--0--0--2--2--2--2--2--2--2--2--2--2--2--2-|
|-2-----2-----3-----3-----2-----2-----0-----0------|
|-3-----------------------0------------------------|
|-------------1-----------------------2------------|

|-------------------------------------------------|
|----1-----1-----1-----1-----0-----0-----1--------|
|---2--2--2--2--2--2--2--2--0--0--0--0--0--0------|
|-3-----3-----3-----3-----0-----0-----0-----0-----|
|-------------------------------------------------|
|-1-----------------------3-----------------3-----|

Intro Part:

|----------------------------------------------------|
|-1-----1-----1------------1-----1-----1-------------|
|---0--0--0--0--0--0-2p0--0--0--0--0--0--0--0-2p0--0-|
|----2-----2-----2------2-----2-----2-----2------2---|
|-3------------------0-----3------------------0------|
|----------------------------------------------------|

|---------------------------------------------------|
|-1-----1-----1------------1-----1-----1-----1------|
|---0--0--0--0--0--0-2p0--0--0--0--0--0--0--0--0--0-|
|----2-----2-----2------2-----2-----2-----2-----2---|
|-3------------------0-----3------------------------|
|---------------------------------------------------|

Bridge (chorus w/o singing):

|--------------------------------------------------|
|-3--------------1-----1-----0-----0-----0-----0---|
|---2--2--2--2--0--0--0--0--0--0--0--0--0--0--0--0-|  x2
|----0-----0--2-----2-----0-----0-----0-----0------|
|-0-----------3------------------------------------|
|-------------------------3------------------------|

|--------------------------------------------------|
|----1-----1-----1-----1-----1-----1-----1-----1---|
|---0--0--0--0--2--2--2--2--0--0--0--0--0--0--0--0-|  x2
|-2-----2-----3-----3-----0-----0-----0-----0------|
|-3------------------------------------------------|
|-------------1-----------3------------------------|

|--------------------------------------------------|
|----1-----1-----1-----1-----1-----1-----3-----3---|
|---0--0--0--0--2--2--2--2--2--2--2--2--2--2--2--2-|
|-2-----2-----3-----3-----2-----2-----0-----0------|
|-3-----------------------0------------------------|
|-------------1-----------------------2------------|

|-------------------------------------------------|
|----1-----1-----1-----1-----0-----0-----1--------|
|---2--2--2--2--2--2--2--2--0--0--0--0--0--0------|
|-3-----3-----3-----3-----0-----0-----0-----0-----|
|-------------------------------------------------|
|-1-----------------------3-----------------3-----|

Bridge Outro:

|----------------------------------------------------|
|-1-----1-----1------------1-----1-----1-------------|
|---0--0--0--0--0--0-2p0--0--0--0--0--0--0--0-2p0--0-|
|----2-----2-----2------2-----2-----2-----2------2---|
|-3------------------0-----3------------------0------|
|----------------------------------------------------|

Verse:

|---------------------------------------------------|
|-1-----1-----1-----1--------3-----3-----3-----3----|
|---0--0--0--0--0--0--0--0-2--2--2--2--2--2--2--2---|
|----2-----2-----2-----2--------3-----3-----3-----3-|
|-3-------------------------------------------------|
|--------------------------1-----------------1------|

|--------------------------------------------------|
|---1-----1-----1-----1-----3-----3-----3-----3----|
|-2--2--2--2--2--2--0--0--2--2--2--2--2--2--2--2---|
|------2-----2-----2-----0-----3-----3-----3-----3-|
|-0-----0-----0------------------------------------|
|-------------------3-----1-----1-----1-----1------|

|---------------------------------------------------|
|-1-----1-----1-----1--------3-----3-----3-----3----|
|---0--0--0--0--0--0--0--0-2--2--2--2--2--2--2--2---|
|----2-----2-----2-----2--------3-----3-----3-----3-|
|-3-------------------------------------------------|
|--------------------------1-----------------1------|

|--------------------------------------------------|
|---1-----1-----1-----1-----3-----3-----3-----3----|
|-2--2--2--2--0--0--0--0--2--2--2--2--2--2--2--2---|
|------2-----2-----0-----0-----3-----3-----3-----3-|
|-0-----0------------------------------------------|
|-------------3-----3-----1-----1-----1-----1------|

Chorus:

|--------------------------------------------------|
|-3--------------1-----1-----0-----0-----0-----0---|
|---2--2--2--2--0--0--0--0--0--0--0--0--0--0--0--0-|  x2
|----0-----0--2-----2-----0-----0-----0-----0------|
|-0-----------3------------------------------------|
|-------------------------3------------------------|

|--------------------------------------------------|
|----1-----1-----1-----1-----1-----1-----1-----1---|
|---0--0--0--0--2--2--2--2--0--0--0--0--0--0--0--0-|  x2
|-2-----2-----3-----3-----0-----0-----0-----0------|
|-3------------------------------------------------|
|-------------1-----------3------------------------|

|--------------------------------------------------|
|----1-----1-----1-----1-----1-----1-----3-----3---|
|---0--0--0--0--2--2--2--2--2--2--2--2--2--2--2--2-|
|-2-----2-----3-----3-----2-----2-----0-----0------|
|-3-----------------------0------------------------|
|-------------1-----------------------2------------|

|-------------------------------------------------|
|----1-----1-----1-----1-----0-----0-----1--------|
|---2--2--2--2--2--2--2--2--0--0--0--0--0--0------|
|-3-----3-----3-----3-----0-----0-----0-----0-----|
|-------------------------------------------------|
|-1-----------------------3-----------------3-----|

Outro:

|----------------------------------------------------|
|-1-----1-----1------------1-----1-----1-------------|
|---0--0--0--0--0--0-2p0--0--0--0--0--0--0--0-2p0--0-|
|----2-----2-----2------2-----2-----2-----2------2---|
|-3------------------0-----3------------------0------|
|----------------------------------------------------|

|----------------------------------------------------|
|-1-----1-----1------------1-----1-----1-----1-----1-|
|---0--0--0--0--0--0-2p0--0--0--0--0--0--0--0--0--0--|
|----2-----2-----2------2-----2-----2-----2-----2----|
|-3------------------0-----3-----------------------3-|
|----------------------------------------------------|
Comments