John Mayer - Somethings Missing Chords & Tabs

 

Somethings Missing Chords & Tabs

John Mayer Chords & Tabs

Version: 3 Type: Tab 0 ratings
1 star 2 stars 3 stars 4 stars 5 stars
comments

Somethings Missing Tab

   
'Something's Missing' Solo from 'Any Given Thursday' by
John Mayer
Transcribed By Isaac Gerg

high e=e (dont change)
B=B (dont change)
G=F# (2nd fret on the newly tuned E string)
D=E (The 5th fret on the newly tuned B string)
A=B (The 7th fret on low E)
low E=E (dont change)

Its up to you to do the rythem.

Intro

e-------------------------------------------------|
B----4-5-4-5-4-5---7-9-7-9-7-9---10-9-10-9-10-9---|
F#------------------------------------------------|
E-------------------------------------------------|
B-------------------------------------------------|
E-------------------------------------------------|
[ Tab from: http://www.guitartabs.cc/tabs/j/john_mayer/somethings_missing_tab_ver_3.html ]
e-------------------------------17-16--------------|
B----17-17-16-16-14-14-12-12----------19-17-16-17--|
F#-------------------------------------------------|
E--------------------------------------------------|
B--------------------------------------------------|
E--------------------------------------------------|

e-------------------------------17-16-------------|
B----17-17-16-16-14-14-12-12----------19-17-16-17-|
F#------------------------------------------------|
E-------------------------------------------------|
B-------------------------------------------------|
E-------------------------------------------------|

e-----17-16----------------------------------------|
B-----------19-17-16-17----16-17-16-17-16-17...16~-|
F#-------------------------------------------------|
E--------------------------------------------------|
B--------------------------------------------------|
E--------------------------------------------------|
Comments