John Mayer - Neon Chords & Tabs

 

Neon Chords & Tabs

John Mayer Chords & Tabs

Version: 1 Type: Tab 0 ratings
1 star 2 stars 3 stars 4 stars 5 stars
comments

Neon Tab

   
-------------------------------------------------------------------------------
			    Neon - John Mayer
-------------------------------------------------------------------------------

   ***************************
   *Transcribed by Matt Tyree*
   ***************************

I havnt found any acurate tabs for this 
yet so I figured there were people who
would like to play the song so here is how
i hear it. He plays it a few different ways 
when going from his album to a live set-even 
slapping the bass notes sometimes live.

The low E needs to be tuned down all the way to a C.
This C will act as your bass line while playing.

I can promise you this is correct-the timming is the 
key and every note listed really is there. This in 
no way represents the rythm, it would have taken hours
to tab that you should be able to figure it out.

h=hammer-on
/=slide up
X=play muted string

This is tab-ed from a live rechording:

Intro/Verse

e|-----------------------------------------Triplet---------------------------|
B|-------8--------------4---------4-----------9----------8-------------------|
G|-----X---10--------3--------------3--------8---------8---------------------|
D|--------------3h5-------5-/6--6-----------8--------8-----------------------|
A|---------------------------------------------------------------------------|
C|---0--------0-3----------3-5---------5/8--------10-------------------------|

Pre-Chorus (part 1)

 "She comes and goes and comes and goes like no one can..."

e|----X-------------------X------------------x-------------------------------|
B|----6-------------------6------------------4-------------------------------|
G|----5-------------------5------------------3-------------------------------|
D|----8-------------------8------------------6-------------------------------|
A|----X-------------------X------------------X-------------------------------|
C|----8-------------------7------------------6-------------------------------|

Pre-Chorus (part 2)
[ Tab from: http://www.guitartabs.cc/tabs/j/john_mayer/neon_tab.html ]
  "She comes and goes and no one knows she's slipping through my hands.."

e|-----X------------------X------------------X--------X----------X-----------|
B|-----6------------------6------------------4--------6----------8-----------|
G|-----5------------------5------------------3--------5----------8-----------|
D|-----8------------------8------------------6--------8----------8-----------|
A|-----X------------------X------------------X--------X----------11----------|
C|-----8------------------7------------------5--------7----------8-----------|

Chorus (part 1) x2

  "She's always buzzin just like... 
     
 ...Neon     Neon     Neon

e|------3--------5--------3--------------------------------------------------|
B|------4--------6--------3h4------------------------------------------------|
G|------3--------5--------3--------------------------------------------------|
D|------6--------8--------3h5------------------------------------------------|
A|------3--------5--------3--------------------------------------------------|
E|------5--------7-----------------------------------------------------------|

Chorus (part 2)
 
     "Who knows how long, how long, how long, she can go before she burns away"

e|--3---------5--------3---------X---------X---------------------------------|
B|--4---------6--------3h4-------11--------9---------------------------------|
G|--3---------5--------3---------10--------8---------------------------------|
D|--6---------8--------3h5-------10--------8---------------------------------|
A|--3---------5--------3---------X---------X---------------------------------|
E|--5---------7------------------10--------8---------------------------------|


Order
  
  Intro/verse
   Pre-chorus (part 1)
  Intro/verse
   Pre-Chorus (part 1)
    Pre-Chorus (part 2)
     Chorus (part 1)
      Chorus (part 2)
  Intro/Verse
   Pre-Chorus (part 1)
    Pre-Chorus (part 2)
     Chorus (part 1)
      Chorus (part 2)

===============================================================================
Comments