John Mayer - Man On The Side Acoustic Chords & Tabs

 

Man On The Side Acoustic Chords & Tabs

John Mayer Chords & Tabs

Version: 1 Type: Tab 0 ratings
1 star 2 stars 3 stars 4 stars 5 stars
comments

Man On The Side Acoustic Tab

   
Tabbed by: Jon Carter
Email: jonhesive2@hotmail.com

Tuning:

e|---------------------------------------------------------------------------|
B|---5~-------------------------5----------5------5---7---5-4-04----4------2-|
G|---4~-------------------------4--------4-------4-------------4---4-4----2--|
D|---6~----4----6---------------7------7--------4--------------4--4---4--2---|
A|--------------------7----4----4----4---------4---------------2-2-----0-----|
E|---0~---0------------------------------------------------------------------|
[ Tab from: http://www.guitartabs.cc/tabs/j/john_mayer/man_on_the_side_acoustic_tab.html ]
e|---------------0---4--------------------------4--------------------------0-|
B|---2-------------------7---5------5---------------7--5-----5-----------4---|
G|-----2------4---------------------4------------------------4h6p4-------4---|
D|-------2--------------------------4h6p4---------------------------7-4--4---|
A|--------0---2------------------0---------7--4-4----------4-------------2---|
E|-------------------0-------------------------------------------------------|

e|---------4-----------------------------------------------------------------|
B|--4------------2-2--0--------9\--------------------------------------------|
G|--4---4----4---2-2--2--2--2--9\--------------------------------------------|
D|------4--------2-2--2--2--2--7\--------------------------------------------|
A|----2---------0--0--0--x--x--x\--------------------------------------------|
E|-----------------------2--2--7\--------------------------------------------|

My first tab.. corrected.  Pretty much how i play it.

| /  slide up
| \  slide down
| h  hammer-on
| p  pull-off
| ~  vibrato
| +  harmonic
| x  Mute note
===============================================================================
Comments