John Mayer - Hummingbird Chords & Tabs

 

Hummingbird Chords & Tabs

John Mayer Chords & Tabs

Version: 1 Type: Tab 0 ratings
1 star 2 stars 3 stars 4 stars 5 stars
comments

Hummingbird Tab

   
Hummingbird - John Mayer

Hey, this tab is awesome, sounds good on any format (acoustic/electric)


Intro

e------------------------------------------------------ ------|
b------------------------------------------------------ ------|
g-------1-----1-------------------1-------------------- ------|
d-----4-----4-----4---(x4)----------------------(x4)--- -(x2)-|
a---0-----0-----0---------------4---4---4---4---------- ------|
e-----------------------------0-------0---0------------ ------|


Part 1: Verse

e-------------------------------------------------------|
b-------------------------------------------------------|
g-------1-----1-------------------1------1--------------|
d-----4-----4-----4---(x4)-----------------------(x4)---|
a---0-----0-----0---------------4------4------4---------|
e-----------------------------0------0------0-----------|


Part 2: Chorus

a)

What I think he plays:
[ Tab from: http://www.guitartabs.cc/tabs/j/john_mayer/hummingbird_tab.html ]
e---9--7--2p0---0-----------0----- ---9--7--2p0---0----------0-------- -----|
b--10--9--4---------4---2--------- --10--9--4---------4/2-------(0)--- -----|
g--------------------------------- ----------------------------------- -----|
d--------------------------------- -----------------------------------------| (x2)
a---0---------0---0---0---0---0--- ---0---------0---0------0---0------ -----|
e--------------------------------- ----------------------------------- -----|

What I play:

e---9--7-----2p0---0---------------(0)--------|
b--10--9-----4---------4---2---0--------------|
g---------------------------------------------|
d--------------------------------------(x2)---|
a---0-----0------0---0---0---0---0------------|
e---------------------------------------------|


b)

e----9--7p0------------------------------|
b---10--9---------9-------9--------------|
g-------------9-------9-------9----------|
d---------------------------------(x2)---|
a----------------------------------------|
e----9------9---9---9---9---9---9--------|


Part 3: End

e---0--0--0--0------------------------------0---|
b---0--0--0--0-----------------------------/9---|
g---9-11--9-11------------9---9--9--9--9----x---|
d---7--9--7--9---(x2)-----6---9--6--9--6---/9---|
a---0--0--0--0------------7------7--7--7----x---|
e-------------------------0------0--0--0----x---|


e---0--0--0--0--------------------------|
b---0--0--0--0--------------------------|
g---9-11--9-11--------------1-------1---|
d---7--9--7--9---(x2)---------------0---|
a---0--0--0--0------------4-------------|
e-----------------------0---------0-----|
Comments