John Mayer - Gravity Chords & Tabs

 

Gravity Chords & Tabs

John Mayer Chords & Tabs

Version: 3 Type: Tab

Gravity Tab

-------------------------------------------------------------------------------
			     Gravity -  John Mayer Trio
-------------------------------------------------------------------------------
Tabbed by: guitarman420420
this is my first tab and i did it by ear but i still think it sounds much better than 
other versions.  this is from the trios new live album Try! and its one of the best songs 
the album.
nobody does any good tabs for mayer songs so i thought i would give it a try

remember that john always uses his thumb on the low E!

tell me what you think

listen to the song for timing

Tuning: standard

Intro:
e|-----------------------------------------------------------------------------|
B|-----------------------------------------------------------------------------|
G|---------12--12--14b16--------12-----12--12----------------------------------|
D|---/14------------------------12h14--12--14---12-----------------------------|
A|----------------------------------------------12h14--------------------------|
E|-----------------------------------------------------------------------------|

e|-----------------------------------------------------------------------------|
B|-----------------------------------------------------------------------------|
G|---------12--12--14b16--14--14-----------------------------------------------|
D|---/14---------------------------5---5--7/9--7-7-----------------------------|
A|---------------------------------5h7-----------------------------------------|
E|-----------------------------------------------------------------------------|

e|-----------------------------------------------------------------------------|
B|-----------------------------------------------------------------------------|
G|---------12--12--14b16--------12-----12--12----------------------------------|
D|---/14------------------------12h14--12--14---12-----------------------------|
A|----------------------------------------------12h14--------------------------|
E|-----------------------------------------------------------------------------|

e|---------------------------------------------------------------------------|
B|---------------------------------------------------------------------------|
G|---------12--12--14b16--14--12--12-----------------------------------------|
D|---/14--------------------------------5---5--7--7/9--7--5h7--5-------5h7---|
A|--------------------------------------5h7--------------------5h7--7------7-|
E|---------------------------------------------------------------------------|


     Verse:  "Gravity, is working against me

e|--3---3--------------------------------------------------------------------|
B|--3---3---------------5----------------------------------------------------|
G|--4---4h5p4-----------5--------5--5--5-------------------------------------|
D|--5---5---------------5--------5--7--5--7/9--7---------7-------------------|
A|--x---x---------------3---5/7-------------------7--10-----7----------------|
E|--3---3--------------------------------------------------------------------|


e|--3---3---3---3-------------------------|
B|--3---3---3---3----------5--------------|
G|--4---4---5---4----------5--------------|
D|--5---5---5---5----------5--------------|
A|--x---x---x---x----------3--------------|
E|--3---3---3---3-------------------------|


     Chorus:  "oh ill never know"

e|----5--------5-----------------------------------5--------------------------|
B|----8--------7----------8-------------6----------7--------------------------|
G|----5--------5----------7-------------5----------5--------------------------|
D|----5--------7----------8-------------7----------7--------------------------|
A|----7--------5------------------------6----------5--------------------------|
E|----5-------------------6---------------------------------------------------|


    Solo:    (this took me forever but i think it sounds pretty good!)

e|-------12--15--12----------------------------------------------12--15--12--|
B|---15-----------------------12-----12---------------------15---------------|
G|------------------------12--12h14--12h14--12--12---------------------------|
D|--------------------14-----------------------------------------------------|
A|---------------------------------------------------------------------------|
E|---------------------------------------------------------------------------|
[ Tab from: http://www.guitartabs.cc/tabs/j/john_mayer/gravity_tab_ver_3.html ]
e|-----------------------------------------------------------------------------|
B|-------------15-----15-------------------------------------------------------|
G|---12--14----14h16--14h16--12--12--14----------------------------------------|
D|---------------------------------------12h14---------------------------------|
A|-----------------------------------------------------------------------------|
E|-----------------------------------------------------------------------------|

e|------------15--15h17--15h17--15h17--15------------------------------------|
B|----15--17-------------------------------17--------------------------------|
G|---------------------------------------------------------------------------|
D|---------------------------------------------------------------------------|
A|---------------------------------------------------------------------------|
E|---------------------------------------------------------------------------|


e|------------15--15h17--15h17--15h17--15------19--15--------------------------|
B|----15--17-------------------------------17----------17p15---17--------------|
G|-----------------------------------------------------------------------------|
D|-----------------------------------------------------------------------------|
A|-----------------------------------------------------------------------------|
E|-----------------------------------------------------------------------------|

e|---------------------------------------------------------------------------|
B|---------------15--12----too fast to---------------------------------------|
G|----16p14--12------------figure it out-------------------------------------|
D|-------------------------i think hes just-----------7--9b10b9b10b9---(x2)--|
A|-------------------------going down the G---------10-----------------------|
E|--------------------------scale--------------------------------------------|

e|-----------------------------------------------------------------------------|
B|-----------------------------------------------------------------------------|
G|---------------------------------------------------------5-------------------|
D|------7--9b10b9b10b9--7----------------------------------5h7--5----5---------|
A|--10---------------------10------------------------5--7-------5h7--5h7-------|
E|-------------------------------------3--3--3/7-------------------------------|

e|-------------------------------3-------3--5---/7---7-----------------------|
B|----------------8------8-------3-------3--5---/8-------10--8--7h8----------|
G|------------------7------7-----4-----------------------------------7-------|
D|--------5--7/9------10---------5-------------------------------------------|
A|---5h7-------------------------x-------------------------------------------|
E|-------------------------------3-------------------------------------------|

e|-------------------(---------------------------------------)---------------|
B|---8---------------(------------------------------8-----8--)---------------|
G|---7h9--7----------(------------------------------7-----7--)----x2---------|
D|-----------10-9----(--7h9p7------------------7---9h10--9---)---------------|
A|-------------------(-------------------7-10----------------)---------------|
E|-------------------(----------10-8-10----------------------)---------------|

e|---15-----------------15----------------------------------------------------|
B|-------15-----------------15-------------13-12------------------------------|
G|-----------12h14p12-----------12h14p12---------14-12-------12---------------|
D|-----------------------------------------------------14-12----14------------|
A|----------------------------------------------------------------------------|
E|----------------------------------------------------------------------------|


   Outro:  " just keep us where the light is"

e|--3---3---3---3-----------------------------|
B|--3---3---3---3----------5------------------|
G|--4---4---5---4----------5-------x4---------|
D|--5---5---5---5----------5------------------|
A|--x---x---x---x----------3------------------|
E|--3---3---3---3-----------------------------|

e|--------------------------------3------------------------------------------|
B|--------------------------------3------------------------------------------|
G|--------------------------7-----4------------------------------------------|
D|-----5----5--7------5-7-9-------5------------------------------------------|
A|-----5h7--------5-7-------------x------------------------------------------|
E|--------------------------------3------------------------------------------|