John Mayer - Dreaming With A Broken Heart Chords & Tabs

 

Dreaming With A Broken Heart Chords & Tabs

John Mayer Chords & Tabs

Version: 1 Type: Tab

Dreaming With A Broken Heart Tab

Tabbed By: Oleg.Ostyak

Verse:

e:------3--------3--------3--------3----|
B:----3---3----5---5----5---5----5---3--|
G:--4--------6--------5--------5--------|
D:--------------------------------------|
A:--------------------------------------|
E:--------------------------------------|

Les Chorus:
[ Tab from: http://www.guitartabs.cc/tabs/j/john_mayer/dreaming_with_a_broken_heart_tab.html ]
e:--------------------------------------|
B:--3---3---3---3--3----3---3--3--3--1--|
G:--0---2---0---0--0----0---0--0--0--0--|
D:--------------------------------------|
A:--------------2--3----2---3--2--1--0--|
E:--0---2---3---------------------------|

Interlude:

e:--------3---------------------- --------3--5----------5--3--|
B:------3----6--5--5----5--3----- ------3----6--6----6--5--3--|
G:--4-5------5-----5h7--5--4----- --/4-5-----5------5---5--4--|
D:-----------7----------------0-- -----------7-----7----------|
A:-----------5------------------- -----------5----------------|
E:------------------------------- ----------------------------|