John Mayer - Daughters Chords & Tabs

 

Daughters Chords & Tabs

John Mayer Chords & Tabs

Version: 3 Type: Tab 0 ratings
1 star 2 stars 3 stars 4 stars 5 stars
comments

Daughters Tab

Intro/Verse
E[-0--0---0-----]
B[-0--0---0--0--]
G[-7--7---7--7--] 	(3x)
D[-7--5---5--4--]
A[----7---0--5--]	
E[-7------------]

E[-0--0---0-----------]
B[-0--0---0--0--0-0-0-]
G[-7--7---7--7--7-9-7-]
D[-7--5---5--4--4-5-4-]
A[----7---0--5--5-7-5-]	
E[-7------------------]

E[-0--0---0-----------]
B[-0--0---0--0--0-0-0-]
G[-7--7---7--7--7-7-9-]
D[-7--5---5--4--4-4-5-]
A[----7---0--5--5-5-7-]	
E[-7------------------]

E[-0--0---0-----]
B[-0--0---0--0--]
G[-7--7---7--7--] 
D[-7--5---5--4--]
A[----7---0--5--]
E[-7------------]

Chorus
E[-0--0---0-----]
B[-0--0---0-----]
G[-7--7---7--7--] 	(4x)
D[-7--6---5--4--]
A[--------0--5--]	
E[-7--7---------]

Quarter note strums
E[-------------------]
B[-------------------]
G[-7--7---7--7--7--9-]  	(2x)
D[-7--5---5--4--5--5-]
A[----7---0--5--7--7-]	
E[-7-----------------]

E[--------------------]
B[--------------------]
G[-7--7--6-7--7--7--9-]  	
D[-7--5--5-5--4--5--5-]
A[----7--0-0--5--7--7-]	
E[-7------------------]
[ Tab from: http://www.guitartabs.cc/tabs/j/john_mayer/daughters_tab_ver_3.html ]
Chorus2
E[-0--0---0-----]
B[-0--0---0-----]
G[-7--7---7--7--] 	(4x)
D[-7--6---5--4--]
A[--------0--5--]	
E[-7--7---------]

E[--------------------------0----
B[-10---8---7h8p7-7---7--5--5----
G[--9---9---7-----7---6--6--7----
D[-10---8---7-----7---7--5--7----
A[--x-----------------------x----
E[-10-----------------------7----

E[--0--0--3-----5----------5----------5----------2------]
B[--3--3--3--2h3-3-2-3--2h3-3-2-3--2h3-3-2-3--2h3-3-2-3-]
G[--0--2--3--2-2--------2----------2----------2---------]  	
D[--2--0--3--2-2--------2----------2----------2---------]
A[--2--------0-0--------0----------0----------0---------]	
E[--0--2--3---------------------------------------------]

E[-0--0---0-----]
B[-0--0---0-----]
G[-7--7---7--7--]  (4x)	(part where piano solos)
D[-7--6---5--4--]
A[--------0--5--]	
E[-7--7---------]

Chorus3
E[-0--0---0-----]
B[-0--0---0-----]
G[-7--7---7--7--] 	(6x)
D[-7--6---5--4--]
A[--------0--5--]	
E[-7--7---------]

Tabbed By Robby Valderrama
www.celede.net
Comments