John Mayer - Clarity Chords & Tabs

 

Clarity Chords & Tabs

John Mayer Chords & Tabs

Version: 2 Type: Tab 0 ratings
1 star 2 stars 3 stars 4 stars 5 stars
comments

Clarity Tab

   
Clarity
Words and Music by John Mayer

Transcribed by: Gabe, with help from Andrew 
Email: Supraslick15_14@Juno.com
AIM: JMFan70

I saw this song played live and he uses variations of it live. He plays this version
live and it is the same as the album. This song is totally 100% correct. This song is
played with fingerpicking. Its hard to pick up at first but I somewhat explained how
to do it.

Key:
\ -Slide Down
F -Fingerpick (This songs verse and intro require you to fingerpick. The easiest way to
do that is to get your finger positions ready, then take you thumb index and middle
fingerand place them on the strings to make the sound pull them together. That is the
best way I can explain it)



Intro

e---------------------
B---------------------
G------6--------------
D--4---4--------------
A--2---5--------------
E--3------------------
   F   F
[ Tab from: http://www.guitartabs.cc/tabs/j/john_mayer/clarity_tab_ver_2.html ]
e--x----
b--x----
g--x----
d--x----
a--x----
E--x----
Shuffle this throughout the verse after each chord is picked


Verse 

e------------------
b------------------
g------6-----------
d--4---4-----------
a--2---5-----------
E--3---------------
   F   F


Chorus

e--------------------2----
b-2h3h3h3h3h3h3--3---3----
g-2h4h4h4h4h4h4--2---2----
d-0--------------0---4----
a-x--------------x---2----
E-3--------------2--------


Bridge

e----------------------------- 
B----------------------------- 
G--------14----10------8------ 
D---14---15----12-----10------
A---15---13----10------8------ 
E---13---------11------9------ 
(So much wasted in.....)


e---------------
b---------------
g--------11\----
d--11\----9\----
a---9\---10\----
E--10\----------

go back to chorus


This song is pretty straight forward, other then the chorus and verse
being a little tricky this song is really easy.
Comments