John Mayer - Cissy Strut Chords & Tabs

 

Cissy Strut Chords & Tabs

John Mayer Chords & Tabs

Version: 1 Type: Tab 0 ratings
1 star 2 stars 3 stars 4 stars 5 stars
comments

Cissy Strut Tab

I attempted to tab out Cissy Strut from the ReAct performance. If u can help me tab the
rest of the song that would be appreciated, but this is the main theme of it

Standard Tunning:

[ Tab from: http://www.guitartabs.cc/tabs/j/john_mayer/cissy_strut_tab.html ]
e:-------------------------------------| 
B:-------------------------------------| 
G:-------------------------------------| 
D:--10p8-------------------------------| 
A:--------10---------------------------| 
E--------------11b----8/----8-6-8-6-8/| 

e:-------------------| 
B:--11--11---10-10--| 
G:--10--10---10-10--| 
D:--9----9----9--9---| x 4 
A:--10--10---10--10--| 
E:-------------------| 

e:--------------------------------------| 
B:--------------------------------------| 
G:--------------------------------------| 
D:--10--8-10-8-108----10--8-10-8-------| x 4 
A:--------------------------------10----| 
E:-----------------------------------8--| 
Comments