John Mayer - Celebration Chords & Tabs

 

Celebration Chords & Tabs

John Mayer Chords & Tabs

Version: 1 Type: Tab 0 ratings
1 star 2 stars 3 stars 4 stars 5 stars
comments

Celebration Tab

Celebration (Kool and the Gang Cover)
Music covered by John Mayer

Email: SupraSlick15_14@Juno.com
AIM : JMFan70
Tuning: Standard

This is a really funny song when you hear it played live. It is a fairly easy
song, but the verse strumming pattern might be hard to pick up on. But youll
get it.

Key:

x -Mute

Intro
[ Tab from: http://www.guitartabs.cc/tabs/j/john_mayer/celebration_tab.html ]
e------(3)(3)------------------|
b--3-3--3--3--3--3--3--2~------|
g--2-2--0--0--2--0--2--2~------|
d--0-0--0--0--0--0--0--2~------|
a--x-x--x--x--x--x--x--0~------|
E--2-2--3--3--2--3--2----------|
Play above 4 times

Verse's

e------x-----------|
b--3---3---2-------|
g--0---2---2-------|
d--0---0---2-------|
a--x---x---0-------|
E--3---2-----------|
Repeat as needed

Bridge

e--2---4------2--4-----------|
b--3---5------3--5--0--0-----|
g--4---4--2---2--4--7--9-----|
d--4---6--4---4--6--7--9-----|
a--2---4--x---2--4--5--7-----|
E---------2------------------|
"Its time to come.."
Comments