John Mayer - Assassin Solo Chords & Tabs

 

Assassin Solo Chords & Tabs

John Mayer Chords & Tabs

Version: 2 Type: Tab 0 ratings
1 star 2 stars 3 stars 4 stars 5 stars
comments

Assassin Solo Tab

This is my first shot at writing a tab.  I decided to tab out the solo for John Mayer's 
single "Assassin" since it's not really available in full.  The solo starts right after 
says "..im gone...".  Sounds right to me - let me know if it needs changed.  Thanks.

-Marc.

E|---------------------------------------------------------------------------|
B|-17b19vvvv-----------17b19-15b17r15-----------17b19-17b19-15(slow)b17------|
G|-16b18vvvv--16-16-14----------------16vv\----------------------------------|
D|---------------------------------------------------------------------------|
A|---------------------------------------------------------------------------|
E|---------------------------------------------------------------------------|
[ Tab from: http://www.guitartabs.cc/tabs/j/john_mayer/assassin_solo_tab_ver_2.html ]
E|----------------------------------------------------------------------------|
B|-17b19-17-15h17p15-------15----------19b21r19-17-19-15h17p15----------15b17-|
G|-------------------16-14----16vv\----------------------------16-14-16-------|
D|----------------------------------------------------------------------------|
A|----------------------------------------------------------------------------|
E|----------------------------------------------------------------------------|

E|------7--------------------------------------------------------------------|
B|--------10b12-10-7-7---------------17b19-15b17-15b17-15---------19b21r19---|
G|-9b11----------------9-7---7vv-------------------------16-14----18b20r18---|
D|-------------------------9-----9-------------------------------------------|
A|---------------------------------------------------------------------------|
E|---------------------------------------------------------------------------|

E|-----------------------------------------------|
B|-17-19-15h17p15-17-15----------17--------------|
G|----------------------16-14-16----16vvvp14-----|
D|-------------------------------------------16\-|
A|-----------------------------------------------|
E|-----------------------------------------------|
Comments