John Mayer - Age Of Worry Chords & Tabs

 

Age Of Worry Chords & Tabs

John Mayer Chords & Tabs

Version: 5 Type: Tab 0 ratings
1 star 2 stars 3 stars 4 stars 5 stars
comments

Age Of Worry Tab

   
John Mayer - The Age of Worry

Key of G Major

Gmaj6 - 3x545x
Dmaj  - x5423x
Cmaj  - x32030

note* Simple three chord song, but it's a bit complicated 
      get a hang on the fingerpicking. I tried my best to write 
      it down as simple as possible.
      He uses some variations in the "G" chord. Gmaj6 to Gmaj,
      and ends on Gmaj5 power chord on the last beat.
      If you think that the Dmaj chord is to complicated, you
      could use the Dsus2 but skip the first string (e).
      
      Feel free to comment and rate.
      Love. Victor.

----------------------------------------------------------
[ Tab from: http://www.guitartabs.cc/tabs/j/john_mayer/age_of_worry_tab_ver_5.html ]
     G6       D       C       
e|--------|-------|-------|--------|
b|-----5--|3------|-------|--------|
G|-4------|----4--|2---4p2|0---2---|
D|--------|-------|-------|--------|
A|--------|5--5--5|3--3--3|3--3--3-|
E|-3--3--3|-------|-------|--------|

                      G        D
 |--------|-------|-------|--------|
 |--------|-------|----3--|3-------|
 |-----0--|0---0-4|4------|----4---|
 |-2------|-------|-------|--------|
 |-3--3--3|3--3--3|-------|5--5--5-|
 |--------|-------|3--3--3|--------|

     G6       D       C
 |--------|-------|-------|--------|
 |-----5--|3------|-------|--------|
 |-4------|----4--|2---4p2|0---2---|
 |--------|-------|-------|--------|
 |--------|5--5--5|3--3--3|3--3--3-|
 |-3--3--3|-------|-------|--------|

              D       G   
 |--------|-------|-------|--------|
 |--------|-------|----3--|------3-|
 |----5--4|2----0-|0------|0~----0-|
 |-2------|-------|-------|------0-|
 |-3--3--3|5--5--5|-------|--------|
 |--------|-------|3--3--3|3~----3-|

----------------------------------------------------------
Comments