John Mayer - 3x5 Chords & Tabs

 

3x5 Chords & Tabs

John Mayer Chords & Tabs

Version: 2 Type: Tab 1 rating
1 star 2 stars 3 stars 4 stars 5 stars
comments

3x5 Tab

3x5
Transcribed by Catherine Gagné (www3.sympatico.ca/g403z)
with help from Alan Myers

Capo 8th fret

Intro

(live) 

e---7-------5---------------7------7------7-------7-----7-----7-------7-----7-----7-----
b-----0-------0---------------0------0------0-------0-----0-----0-------0-----0-----0---
g-------5-------5---------------5------5--------------5-----5-------------5-----5-------
d---0-------0-------(x2)----------------------------------------------------------------
a---------------------------------------------------------------------------------------
e---------------------------0---------------------2-------------------3-----------------

e----------------------------
b---------------------0--1---
g---0--2--0--2--0--2--0--2---
d---2--4--2--4--2--4---------
a----------------------------
e----------------------------

The first part is tabbed from the mp3 that was on the sounds page at jmtabs.exodussystems.com.
The second one is tabbed from the mp3 on the sounds page at www.sixfeetsmall.com. 


e---0---0---0---0---------- 
b---3---5---8---7---------- 
g---0---0---0---0---------- 
d---2---5---7---7---(x2)--- 
a---2---4---7---6---------- 
e---0---0---0---0---------- 

*** Alan told me that the correct Em7 chord is (02x030). (045050) is probably
    played this way also (04x050).


Part 1

Verse 

e---0---x---x---x-------0--- ---0---x---x---x------------------ 
b---3--(1)--3---3---0---3--- ---3--(1)--3---3---0----3--3--3--- 
g---0---2---0---0---2---0--- ---0---2---0---0---2----0--0--0---
d---2---0---0---2---1---2--- ---2---0---0---2---1----2--0--0--- 
a---2---x---x---3---2---2--- ---2---x---x---3---2----2--x--x--- 
e---0---2---3---x---x---0--- ---0---2---3---x---x----0--2--3---


Part 2

(first time)

e-------------------0----------0---0---0---0---- 
b---3---3---3---3---1----------1---3---3---3---- 
g---0---0---2---0---0----------0---2---0---2---- 
d---x---0---0---x---3---(x3)---0---0---2---4---- 
a---3---x---x---3---x----------2---x---x---0----
e-------3---2-------1----------0---x---x---x----

(second time)

e-------------------0----------0---0---0--- 
b---3---3---3---3---1----------0---1---1--- 
g---0---0---2---0---0----------0---0---2--- 
d---x---0---0---x---3---(x3)---2---3---0--- 
a---3---x---x---3---x----------2---x---x--- 
e-------3---2-------1----------0---1---2--- 


Part 3

Chorus 

e---3---0---3---0---
b---3---1---1---3---
g---0---0---0---0---
d---0---3---2---1---
a---x---x---0---0--- 
e---3---3---x---x---


Part 4
[ Tab from: http://www.guitartabs.cc/tabs/j/john_mayer/3x5_tab_ver_2.html ]
e----------------------------------------------------------------------                    
b---------------------0--0--0--0---------------------------------------
g--0-2-0-2------------0--2--0--2---0--2--0--2---0--2--0--2--2--4--0--2-
d--2-4-2-4--(etc..)---2--4--2--4---2--4--2--4---2--4--2--4--0--2--2--4-
a---------------------2--2--2--2---------------------------------------
e---------------------0--0--0--0---2--2--2--2---3--3--3--3--3--3--3--3-
                                   T            T  
 
e----------------------------------------------------------
b----------------------------------------------------------
g--------0--2--0--2--0--2--0--2---0--2--0--2--0--2--0--2---
d--------2--4--2--4--2--4--2--4---1--1--1--1--1--1--1--1---
a--0--2--3--3--3--3--3--3--3--3---2--2--2--2--2--2--2--2---
e----------------------------------------------------------

sometimes he plays this when he starts to sing:

e---0---0---0-------0---0----------------------------
b---3---1---3-------3---0----------------------------
g---0---2---0-------0---2----------------------------
d---2---0---0-------x---1---(x2)---------------------
a---2---x---x--0-2--3---2---------(back to part 2)---
e---0---2---3----------------------------------------


Part 5

e---------------------------------------------------5----------
b-----1-----1--------0------0--------0----3----2---2-----------
g-------0-----0--------0------0----------0--------0------------
d---------------2---------------1-------0--------------(x3)----
a---0-0---0--------0-0---0---------------------0---------------
e------------------------------------3-------------------------

e--------------------------------0---
b---1-----0---------------------0----
g-----0-----0---0-----2--------0-----
d-----------------2-----1-----4------
a---0-----2-----3-----2------2-------
e---------------------------0--------


Intro

(1) I'm writing you to
catch you up on places I've been
You held this letter
probably got excited, but there's nothing else inside it

(2a) Didn't have a camera by my side this time
Hoping I would see the world with both my eyes
Maybe I will tell you all about it when I'm
in the mood to lose my way with words

Intro

(1) Today skies are painted colors of a cowboy's cliché
And strange how clouds that look like mountains in the sky
are next to mountains anyway

(2b) Didn't have a camera by my side this time
Hoping I would see the world with both my eyes
Maybe I will tell you all about it when I'm
in the mood to lose my way
but let me say
(3) You should have seen that sunrise with your own eyes
it brought me back to life
You'll be with me next time I go outside
just no more 3x5's 

(4)

I guess you had to be there
I guess you had to be with me 
(2b) Today I finally overcame
tryin' to fit the world inside a picture frame
Maybe I will tell you all about it when I'm in the mood to
lose my way but let me say
(3) You should have seen that sunrise with your own eyes
it brought me back to life
You'll be with me next time I go outside
No more 3x5's
Just no more 3x5's 

(5)
Comments