John Mayer - 3x5 Chords & Tabs

 

3x5 Chords & Tabs

John Mayer Chords & Tabs

Version: 1 Type: Tab 2 ratings
1 star 2 stars 3 stars 4 stars 5 stars
comments

3x5 Tab

3x5
by John Mayer
Room for Squares
Transcribed by Tyler Hartley


*** Capo 8th fret ***
And FYI, the T below some of the tab is for thumb;
you have to wrap your hand around the neck.

Intro 

e---0---0---0---0---------- 
b---3---5---8---7---------- 
g---0---0---0---0---------- 
d---2---4---7---7---(x2)--- 
a---2---4---7---6---------- 
e---0---0---0---0---------- 


Part 1

Verse 

I'm writing you...                And you...
e---0---x---x---x---x---0---0--- ---0---x---x---x---x---0---0---x---x---x
B---3---3---3---3---3---0---3--- ---3---3---3---3---3---0---3---3---3---3
F---0---0---0---0---0---0---0--- ---0---0---0---0---0---0---0---0---0---0
D---2---0---0---0---2---1---2--- ---2---0---0---0---2---1---2---0---0---0
A---2---x---x---2---3---2---2--- ---2---x---x---2---3---2---2---x---x---2
E---0---2---3---x---x---x---0--- ---0---2---3---x---x---x---0---2---3---X


First Chorus: 

Didn't have a camera...
e---0---------------0-3--------0---0---0---0---- 
b---3---3---3---3---1----------3---3---3---3---- 
g---0---0---2---0---0----------0---2---0---2---- 
d---2---0---0---2---3---(x3)---2---0---2---4---- 
a---3---2---x---3---x----------2----------------
e-------3---2-------1----------0----------------
                    T  
--Repeat the verse--



Second Chorus:
[ Tab from: http://www.guitartabs.cc/tabs/j/john_mayer/3x5_tab.html ]
Didn't have a camera..
e---0---------------0-3-------
b---3---3---3---3---1---------
g---0---0---2---0---0--------- 
d---2---0---0---2---3---(x3)--
a---3---2---x---3---x---------
e-------3---2-------1---------
                    T

When I'm in the mood...
e---0---0---2---------
b---3---1---1---------
g---0---0---2---------
d---2---3---0---------
a---2---x-------------
e---0---1-------------



Main Chorus: 

You should have seen...
e---3---0---3---0---
b---3---5---1---3---
g---0---5---0---0---
d---0---3---2---1---
a---x---5---0---2--- 
e---3---x---x---x---

You can replace (353550) by (3x3010)


Bridge:
               I guess you had...(second time)
e---0--0-------0---0---0-----0---0---------
B---0--0-------0---0---0-----0---0---------
G---0--2-------0---0---0-----0---0---------
D---2--2--X8---2---2---2-----2---1-------X3
A---2--2-------2---X---X-0-2-3---2-0-------
E---0--0-------0---2---3-------------3-2---

--Cuts to Second Chorus--


e-------------------------------------5------
B---1----1-------0----0-------0--3--2--------
G-----0----0-------0----0-----0--0--0--------
D-------2----2-------1----1--------------x3--
A---0------------2---------------2--0--------
E-----------------------------3--------------

e-----------------------0------
B---1----0--------------0------
G-----0----0--0----2----0------
D---------------2----1--4------
A---0----2----3----2----2------
E-----------------------0------

Comments