John Mayer - 3x5 Chords & Tabs

 

3x5 Chords & Tabs

John Mayer Chords & Tabs

Version: 1 Type: Bass Tab 0 ratings
1 star 2 stars 3 stars 4 stars 5 stars
comments

3x5 Bass Tab

 JOHN MAYER - 3X5
(Tabbed by w7w7w7)



Intro
G|-----------------------------5-------5/8-7-----------|
D|----------------------------5--------------------5---|
A|------------3----------------------------------------|
E|-----------------------------------------------------|



Verse #1
G|------------------------------------------------5----|
D|--------5--------------5-6-------5-------------5-----|
A|-3-------3-------3-5-6-------------------3-----------|
E|-----------------------------------------------------|

G|-----------------------------------------------------|
D|-----------------------5-6-------5-------------5-----|
A|-3-------(3)-(3)-3-5-6-------------------3-5-6-------|
E|-----------------------------------------------------|



Chorus #1
G|-------------------|    |--------------------------3-|
D|-6-----------4/6---|    |-----------1/3---------35---|
A|---6-----4-------4-| x3 |-3-----1---------1----------|
E|-----6-4-----------|    |----------------------------|

G|-5--------5/8-5-------5/8-7-----------|
D|----------------------------------5-5-|
A|--------------------------------------|
E|--------------------------------------|



Verse #2
G|-----------------------------------------------------|
D|--------5-------5------5-6-----6-5-------------------|
A|-3-------3-------3-5-6--------6------6---3-----3-----|
E|----------------------------------------------3----3-|

G|-----------------------------------------------------|
D|-----------------------5-6-------5-------------5-----|
A|-3-------3-------3-5-6---------------6---3-5-6-------|
E|-----------------------------------------------------|



Chorus #2
G|-------------------|    |----------------------------|
D|-6-----------4/6---|    |----------------------------|
A|---6-----4-------4-| x3 |-3-----3-4-----4-5---5------|
E|-----6-4-----------|    |-----3-------4-----6---6----|

G|-----------------------------------------------------|
D|---6/8-------6/8-------------------------------------|
A|-6-----6---6-----6---6-7-8-----8-----8/11-10-8--8--8-|
E|----------6---------6---------8------------------8---|

G|-----------------------------------------------------|
D|---------6/8-----------------------------------------|
A|-6-----6-----6---6---6-7-8-----8-----8/11-10-8--8--8-|
E|------6---------6---6----------------------------8---|

G|-----------------------------------------------------|
D|---------6/8-----------------------------------------|
A|-6-----6-----6---6---6-7-8-----8-----8/11-10-8-------|
E|------6---------6---6---------8------------------8---|
[ Tab from: http://www.guitartabs.cc/tabs/j/john_mayer/3x5_btab.html ]
G|-----------------------------------------------------|
D|---------6/8-----------------------------------------|
A|-6-----6-----6-------6---8-----8-----8/11-10-8-------|
E|------6----------------------------------------------|




Bridge
G|-----------------------------------------------------|
D|-----------------------------------------------------|
A|-3-------3/15-------10/3-------3/15--\---------------|
E|-----------------------------------------------------|

G|-----------------------------------------------------|
D|---------------356-6---6-5-5-5-5-3-------------------|
A|-3-3-5-5-6-6-6-------6--------5---6------------------|
E|-----------------------------------------------------|

G|-----------------------------------------------------|
D|---------------5-6-6---6-5-5-5-5-3-------------------|
A|-3-3-5-5-6-6-6-------6--------5---6------------------|
E|-----------------------------------------------------|

G|-----------------------------------------------------|
D|---------------356-6---6-5-5-5-5-3-------------------|
A|-3-3-5-5-6-6-6-------6--------5---6------------------|
E|-----------------------------------------------------|



Chorus #3
G|-------------------|    |----------------------------|
D|-6-----------4/6---|    |----------------------------|
A|---6-----4-------4-| x3 |-3-----3-4-----4-5---5------|
E|-----6-4-----------|    |-----3-------4-----6---6----|

G|-----------------------------------------------------|
D|---6/8-------6/8-------------------------------------|
A|-6-----6---6-----6---6-7-8-----8-----8/11-10-8-------|
E|---------6----------6-------8-----8--------------8---|

G|-----------------------------------------------------|
D|---6/8-------6/8-------------------------------------|
A|-6-----6---6-----6---6-7-8-----8-----8/11-10-8-----8-|
E|---------6----------6-------8-----8--------------8---|

G|-----------------------------------------------------|
D|-------6/8-------------------------------------------|
A|-6---6-----6-----6---6-7-8-----8-----8/11-10-8-------|
E|---6----------6-----6----------------------------8---|

G|-----------------------------------------------------|
D|---6/8-----------------------------------------------|
A|-6-----6---6----6----6-7-8-----8-----8/11-10-8-------|
E|----------6----6----6---------8------------------8---|

G|-----------------------------------------------------|
D|-----------6/13--------------------------------------|
A|-6-----6---------------------------------------------|
E|------6----------------------------------------------|



End
G|-----------------------------------------------------|
D|-----------------------------------------------------|
A|-8---10---11---10------------------------------------|
E|--------------------8--------------------------------|
Comments