John Mayall - Have You Heard Chords & Tabs

 

Have You Heard Chords & Tabs

John Mayall Chords & Tabs

Version: 1 Type: Bass Tab 0 ratings
1 star 2 stars 3 stars 4 stars 5 stars
comments

Have You Heard Bass Tab

   
Have You Heard.btab
John Mayall
TablEdited by Poppamies
Tuning : E A D G 	Time Signature: 6/8

 tempo 68    |            |           |            |           |            
|------------------------|--------------------0---|3-----------5-----------|
|------------------------|----------------2-------|--------------------1---|
|------------------------|3-----------3-----------|----------------3-------|
|------------------------|------------------------|------------------------|

 |           |            |           |            |           |            
|------------------------|------------------------|--------------------0---|
|3-----------3-----------|1-----------------------|----------------2-------|
|----------------0---3---|----------------1---2---|3-----------3-----------|
|------------------------|------------------------|------------------------|

 |           |            |           |            |           |            
|3-----------0---8---7---|--------------------0---|3-----------0-----------|
|------------------------|----------------2-------|--------------------1---|
|------------------------|3-----------3-----------|----------------3-------|
|------------------------|------------------------|------------------------|

 |           |            |           |            |           |            
|------------------------|------------------------|------------------------|
|3-----------3-----------|1---------------1---3---|------------------------|
|----------------0---3---|------------3-----------|----------------0---3---|
|------------------------|------------------------|1-----------1-----------|

 |           |            |           |            |           |            
|------------------------|--------------------0---|3-------3---5---0---3---|
|1-----------3-----------|----------------2-------|------------------------|
|----------------1---2---|3-----------3-----------|------------------------|
|------------------------|------------------------|------------------------|
[ Tab from: http://www.guitartabs.cc/tabs/j/john_mayall/have_you_heard_btab.html ]
 |           |            |           |            |           |            
|------------------------|--------------------3---|0-------0---------------|
|------------------------|------------2---3-------|--------------------0---|
|3-------3---3-------3---|3-------3---------------|------------2-----------|
|------------------------|------------------------|------------------------|

 |           |            |           |            |           |            
|------------0-----------|------------------------|------------------------|
|3-----------------------|3-----------3-----------|1-----------3-----------|
|--------------------2---|----------------0---3---|----------------1---2---|
|----------------3-------|------------------------|------------------------|

 |           |            |           |            |           |            
|--------------------0---|--------------------0---|--------------------3---|
|------------------------|3-----------3-----------|----------------2-------|
|3-------3---3---3-------|------------------------|3-------3---3-----------|
|------------------------|------------------------|------------------------|

 |           |            |           Have you heard     about my baby...   
|0-------0---0-------0---|--------------------0---|3-----------0-----------|
|----------------0-------|----------------2-------|--------------------1---|
|------------------------|3-----------3-----------|----------------3-------|
|------------------------|------------------------|------------------------|

 |           |            |           |            |           |            
|------------------------|------------------------|------------------------|
|3-------3---3-----------|1-----------3-----------|-------and so on...-----|
|----------------0---3---|----------------1---3---|------------------------|
|------------------------|------------------------|------------------------|

Transcribe! 6.0 transcription http://www.seventhstring.demon.co.uk/
Created with TablEdit http://www.tabledit.com/
http://www.geocities.com/jani_bjorklund/janis.html
Comments