John Mark Mcmillan - Make You Move Chords & Tabs

 

Make You Move Chords & Tabs

John Mark Mcmillan Chords & Tabs

Version: 1 Type: Tab 0 ratings
1 star 2 stars 3 stars 4 stars 5 stars
comments

Make You Move Tab

   
John Mark McMillan
Make You Move
From "The Song Inside the Sound of Breaking Down"

You gotta have the bass plunking away for this song to sound right.

Intro
C - C/F - C/G - C/D


Verse 1
                        F                     C
Would you save me for a song if the music was where we'd meet?
                       D            C/E                F
Would you save another dance for me? Would you save my soul?
                            F
For the chance that I could know you now 
                C
I would bury my pride in the ground
                          D                C/E                     F
Cuz if I'm running then I don't know how I'm ever going to get back home


Intro (with riff)


Chorus
            C                        C/F
I just want touch you I just want to make you move
            C/G                  C/D
I can't get over you the way you slide into the room

[ Tab from: http://www.guitartabs.cc/tabs/j/john_mark_mcmillan/make_you_move_tab.html ]
Verse 2
                        F                         C
Would you save me for a song if I didn't have the words to say?
                       D      C/E                 F
Would you listen to me anyway?   Would you help me out?
                            F
For the chance that I could know you now 
                C
I would bury my pride in the ground
                       D                C/E                     F
If I'm running then I don't know how I'm ever going to get back home

Intro (with riff)

Chorus

Bridge/solo
C/F - C/D - C - C/G 
C/D - C/F - C - C/A (solo starts here)
C/D - C/F - C - C
C/F - C/D - C - C/G
C/D - C/F - C - C/A
C/D - C/F - C - C - C - C

Chorus



Main riff throughout song
e|---------|
B|--5-6-8--|
G|---------|
D|---------|
A|---------|
E|---------|


Here's the little solo part. Play these palm muted
e|---------------------------------------------------------------------|
B|--3-3--3-3-3--3-3-3--3-3-3--3-6-6--6-6-6--6-6-6--6-6-6--6------------|
G|----------------------------------------------------------5-5--5-5-5-|
D|---------------------------------------------------------------------|
A|---------------------------------------------------------------------|
E|---------------------------------------------------------------------|

                                     (I included the high notes here so
                                      you could play them when it goes up)
e|-----------------------------------(8-8-7-7)-------------------------|
B|-------------------------------------------(8-8)---------------------|
G|--5-5-5--5-5-5--5-------------------5-5-4-4----(7-7)-----------------|
D|------------------7-7--7-7-7~~~~------------5-5----------------------|
A|------------------------------------------------5-5------------------|
E|---------------------------------------------------------------------|


Please let me know if you have any input or corrections. Thanks!
Comments