John Lennon - Angel Baby Chords & Tabs

 

John Lennon Chords & Tabs

Version: 1 Type: Bass Tab 0 ratings
1 star 2 stars 3 stars 4 stars 5 stars
comments

Angel Baby Bass Tab

+++++++++++++++++++++++++++
| John Lennon- Angel Baby |
+++++++++++++++++++++++++++


"Please never leave me blue and alone..."

Tuning: EADG


Intro
1.
G|------------------------------------------------------------------------------------|
D|---------------2--------------------------------------------------------------------|
A|-----------------2-3~----3-4-5-5-5-5h7-5-2------5--------0-2-3~---3-4-5-5-5-5h7-5-2-|
E|-3~---3-2-0~-------------------------------3~-----2-0~------------------------------|

Verse
"Its just like heaven..."
2.
G|------------------------------------------------------------------------------------|
D|---------------2-----------2--------------------------------------------------------|
A|-----------------2-3~----3---5-5-5-5h7-5-2------2--------0-2-3~---3-4-5-5-5-5h7-5-2-|
E|-3~---3-2-0~-------------------------------3~-----2-0~------------------------------|

"But after all..."
3.
G|-------------------------------------------------------------------------------------|
D|--------------2----------------------------------------------------------------------|
A|------5---------0-2-3~----3-4-5-5-5-5h7-5-2------2--------0-2-3~---3-4-5-5-5-5h7-5-2-|
E|-3~-----2-0~--------------------------------3~-----2-0~------------------------------|
[ Tab from: http://www.guitartabs.cc/tabs/j/john_lennon/angel_baby_btab.html ]
"Oooh I love you..."
4.
G|-------------------------------------------------------------------------------------|
D|-------------------------------------------------------------------------------------|
A|------5---------0-2-3~----3-4-5-5-5-5h7-5-2------2--------0-2-3~---3-4-5-5-5-5h7-5-2-|
E|-3~-----2-0~--3-----------------------------3~-----2-0~------------------------------|

5.
G|------------------------------------------------------------------------------------|
D|---------------2-0------------------------------------------------------------------|
A|--------0----------3~----3-4-5-5-5-5h7-5-2------2--------0-2-3~---3-4-5-5-5-5h7-5-2-|
E|-3~---2---0~-------------------------------3~-----2-0~------------------------------|

Then it just repeats this basslines all through out the song


Please rate thanks!


Lyrics:

It's just like heaven
being here with you.
You're like an angel,
too good to be true.
But after all, I love you, I do.
Angel baby, my angel baby.

When you are near me
my heart skips a beat.
I can hardly stand on
my own two feet.
Because I love you, I love you, I do.
Angel baby, my angel baby.

Please, never leave me
blue and alone.
If you ever go,
I'm sure you'll come back home.
Because i love you, I love you, I do.
Angel baby, my angel baby.



+++++++++++
| Raileff |
+++++++++++
Comments