John Legend - No Other Love Chords & Tabs

 

No Other Love Chords & Tabs

John Legend Chords & Tabs

Version: 1 Type: Tab 0 ratings
1 star 2 stars 3 stars 4 stars 5 stars
comments

No Other Love Tab

e|---------------------------------------------------|
b|---------------------------------------------------|
g|--------8-9-8-6------8-9-8-4-----11b13r11----------|
d|----9~----------8~-----------6~--------------------|
a|--9----------------------------------------7-8-10--|
e|---------------------------------------------------|

[ Tab from: http://www.guitartabs.cc/tabs/j/john_legend/no_other_love_tab.html ]
e|---------------------------------------------------|
b|---------------------------------------------------|
g|---------------------------------------------------|
d|---------------------------------------------------|
a|--10-8-7-------------------------------------------|
e|---------------------------------------------------|


Repeat throughout whole song
Comments