John Lee Hooker - Healer Chords & Tabs

 

Healer Chords & Tabs

John Lee Hooker Chords & Tabs

Version: 1 Type: Tab 0 ratings
1 star 2 stars 3 stars 4 stars 5 stars
comments

Healer Tab

   
-----------------------------------------------------------------------------------
			      John Lee Hooker - THE HEALER
-----------------------------------------------------------------------------------


Send comments/feedback to mfo6463@gmail.com


 /  slide up
 \  slide down
 h  hammer-on
 p  pull-off
 ~  vibrato
 b  bend
 br bend then release


Intro

  (0:00)
e|---------------------------------------------------------------------------|
B|--6--6/8---6--6-6/8-----------6--6/8---------------------------------------|
G|---------------------------------------------------------------------------|
D|--7--7/9---7--7-7/9-------0---7--7/9---3-br-0---0-----------0---0----------|
A|----------------------0h3---------------------3---------0h3---3------------|
E|----------------------------------------------------0h3--------------------|


  (0:09)
e|---------------------------------------------------------------------------|
B|--6--6/8-8---6--6-6/8-----------6--6/8-8-----------------------------------|
G|---------------------------------------------------------------------------|
D|--7--7/9-----7--7-7/9-------0---7--7/9-9---3-br-0---0----------------------|
A|------------------------0h3-----------------------3------------------------|
E|---------------------------------------------------------------------------|


  (0:55)
e|---------------------------------------------------------------------------|
B|-----------------------------------6b(7)-----------------------------------|
G|-------5--7---5--7--------5--7---7-----------------------------------------|
D|--7-7----------------7-7---------------------------------------------------|
A|---------------------------------------------------------------------------|
E|---------------------------------------------------------------------------|


  (1:00)
e|---------------------------------------------------------------------------|
B|-------------------------5--6----------------------------------------------|
G|-------5--7---5--7---77--------7b-7br-5------------------------------------|
D|--7-7------------------------------------7-5-7-5-3-5-3---------------------|
A|---------------------------------------------------------------------------|
E|---------------------------------------------------------------------------|


                               Hold the second bend for a couple seconds,
                                     then start to release slowly.
[ Tab from: http://www.guitartabs.cc/tabs/j/john_lee_hooker/healer_tab.html ]
  (1:04)                                          /\
e|----------------------------------------------------8-5--------------------|
B|---------------------------6--8--8br-6--8-6~---8brbr-----8b-8--6--8p6~-8b--|
G|-------5--7---5--7---5--7--------------------------------------------------|
D|--7-7----------------------------------------------------------------------|
A|---------------------------------------------------------------------------|
E|---------------------------------------------------------------------------|


  (1:14)
e|---------------------------------------13b(14)-----------------------------|
B|------13--15---13-15-------13--15---15-------------------------------------|
G|--14-------------------14--------------------------------------------------|
D|---------------------------------------------------------------------------|
A|---------------------------------------------------------------------------|
E|---------------------------------------------------------------------------|


  (1:18)
e|-----------------------------------12~--10/12-10~--------------------------|
B|---------13--15---13-15-----13-15------------------------------------------|
G|--14-14-------------------------------------------12b-12-10----------------|
D|------------------------------------------------------------12-------------|
A|---------------------------------------------------------------------------|
E|---------------------------------------------------------------------------|


  (1:22)
e|------------------13--------13--15--15br--13-15-13\------------------------|
B|---------13--15------15----------------------------------------------------|
G|--14-14--------------------------------------------------------------------|
D|---------------------------------------------------------------------------|
A|---------------------------------------------------------------------------|
E|---------------------------------------------------------------------------|


                                                               slow bend
  (1:27)                      (approximate)                        /\
e|--17h20p17h20p17h20p17h20p17h20p17h20-20-20-20-20-20-20-20-20-20-20b-20b-20b-20b-20br-17----------|
B|-----------------------------------------------------------------------------------------20-18\---|
G|--------------------------------------------------------------------------------------------------|
D|--------------------------------------------------------------------------------------------------|
A|--------------------------------------------------------------------------------------------------|
E|--------------------------------------------------------------------------------------------------|
Comments