John Lee Hooker - Boom Boom Boom Chords & Tabs

 

Boom Boom Boom Chords & Tabs

John Lee Hooker Chords & Tabs

Version: 1 Type: Bass Tab 0 ratings
1 star 2 stars 3 stars 4 stars 5 stars
comments

Boom Boom Boom Bass Tab

   
					 John Lee Hooker
					  Boom Boom Boom

Part I.
G|----------------|----------------|-----------------|----------------|----------------|
D|o---------------|----------------|-1---3---4-------|----------------|----------------|
A|o1---3---4------|-1---3---4------|--------------2--|-1---3---4------|-1---2---3---4--|
E|-------------2--|------------2---|-----------------|-------------2--|----------------|

G|----------------|
D|---------------o|
A|-1---3---4-----o|
E|-------------2--|


[ Tab from: http://www.guitartabs.cc/tabs/j/john_lee_hooker/boom_boom_boom_btab.html ]
Part II.
  F#                                                                    B
G|----------------|----------------|-----------------|----------------|----------------|
D|o---------------|----------------|-----------------|----------------|----------5--7--|
A|o----------5--7-|-----------5--7-|------------5--7-|-----------5--7-|--2----7--------|
E|--2-----7-------|--2-----7-------|--2------7-------|--2-----7-------|----------------|
                                                        C#              F#
G|----------------|----------------|-----------------|----------------|----------------|
D|-----------5--7-|----------------|-----------------|-----------7--9-|-----------5--7o|
A|--2-----7-------|-----------5--7-|------------5--7-|--4-----9-------|--2-----7------o|
E|----------------|--2-----7-------|--2-----7--------|----------------|----------------|

It's a simple Blues in F#. It's fun to play, if you feel it.

Part I.  played in intro, and with vocals.
Part II. played in the Chorus (Shake it up baby), and along the guitar solo.

Note: If you have a harmonicanist in your band, then play the song in A (A, D, E). 

More tabs comming soon!(Pink Floyd     -Set the controls to the hearth of the sun
				       -In The Flash
			      	       -High hopes
		       Led Zeppelin    -Whola lotta Love
		       U2              -With or without you	
                       Sting           -An englishman in New York
                                            [etc...]         	)	
Tabbed by Banyek
Banyek@egon.gyaloglo.hu
(Balazs Pocze)
00-36-27-346-439
Any comments?
Comments