John Frusciante - Wednesdays Song Chords & Tabs

 

Wednesdays Song Chords & Tabs

John Frusciante Chords & Tabs

Version: 2 Type: Tab

Wednesdays Song Tab

   
----------------------------------------------------------------------------
			Wednesday's Song - John Frusciante
----------------------------------------------------------------------------

Tabbed by: Richard
Email: sesshomaru_182@hotmail.com
Tuning: Standard

Intro:
e|----------4------8------3------3---|
B|---4------3------9------4------4---|
G|---5------5------7------5------2---|
D|---5------3------x------5------3---|
A|---3-------------8------3----------|
E|-----------------------------------|
     (a)   (b)    (c)    (a)    (d)

Verse 1:
     a            b           c
You'll make it through the day
              a              d
See things another way and behold.

Chorus:
e|---4-------------4------4------3------3------3---|
B|---4------8------6------6------4------4------4---|
G|---5------8------5------7------5------4------2---|
D|---6------8------6------6------5------3------3---|
A|---6------6--------------------3-----------------|
E|---4---------------------------------------------|
    (e)    (f)     (g)   (h)    (a)    (i)    (d)

   e         f            g
Listen to Wednesday's song
  e              f          g
This night you go home alone
 h               a
How the sane go upright
 i               d
How do you look another night.


Verse 2:
  a            b        c
You're back under my hat
          a                     d
And even knowing that you're a whore.

Chorus 2:
  e      f             g
Nothing ever meant more
  e                f               g
Than switching rooms through a door
 h          a
Out into another one
  i              d
Frames flash inward.

Chorus a:

e|---4------4-------------1---|
B|---6------4------8------1---|
G|---6------5------8------2---|
D|---6------6------8------3---|
A|---4------6------6------3---|
E|----------4-------------1---|
    (j)    (e)    (f)    (k)
[ Tab from: http://www.guitartabs.cc/tabs/j/john_frusciante/wednesdays_song_tab_ver_2.html ]
          j
And you know
 e      f         k
I have seen the world
      j
You know
   e          f        k       j
I've drowned in my thoughts a lot
   e       f         k       j
Deep in rains that swirl above

Bridge:

    j        e     f
I canceled heaven I concede

e|--------8----8----8---x-8--8--8------8------8------8--8------3-3-3--4---|
B|---6-6--6-6--6-6--6-6-x-9--8--9----8-9----8-9----8-9--9-----4--4-4--3---|
G|---6-6--6--6-6--6-6---x-10-10-10-----10-10--10-----10-10---4---4-4--2---|
D|---8-8--8--8-8--8-8---x-10-10-10-10--10-----10-10--10-10--3----3-3--3---|
A|---8-8----------------x-8--8--8------8------8------8--8-----------------|
E|------------------------------------------------------------------------|

e|---4-4--4-44444---|
B|---3-3--3-33333---|
G|---2-2--2-22222---|
D|---3-3--3-33333---|
A|------------------|
E|------------------|


Verse 3:
  a      b         c
Another word to say
          a                   d
When everything's O.K you go down.
  a           b         c
And pulling up the slack
           a
And never coming back
     d
An alarm.

Chorus b:
   e        f         g
Ringing to set the sun
 e       f         g
No one ever becomes
    h                   a
What others thought they should've been
  i                   d
Inside they're what they can see, You know.
 j       e     f            k
You know I do miss this girl
   j     e      f      k      j
To show I am in a swirl of sun
  e    f       k
Being what I've got
    j
The joy

Bridge 1:
e|-------8---|
B|---6---6---|
G|---6---6---|
D|---8---8---|
A|---8-------|
E|-----------|
    (l) (m)


j       e         f        l m
I canceled heaven I concede
 j      e       f   l  m
Everything that I believe
   j         e    f       l m
I canceled heaven I concede

Outro:

e|---8---|
B|---9---|
G|---10--|
D|---10--|
A|---8---|
E|-------|

That's it! Such a great song! If you have any corrections or questions, email me to
sesshomaru_182@hotmail.com