John Frusciante - This Cold Chords & Tabs

 

This Cold Chords & Tabs

John Frusciante Chords & Tabs

Version: 2 Type: Tab 0 ratings
1 star 2 stars 3 stars 4 stars 5 stars
comments

This Cold Tab

   
Artist: John Frusciante
Album: Shadows Collide With People
Song: This Cold

In this song I haven't pointed out exactly where to switch chord, but it really isn't 
that hard. Just make sure to also switch the pace and rhythm from verse to chorus and vice verca.

Tabbed by Aske Saxe, Denmark
Frodo_baggins15@hotmail.com

Tuning: standard
Chords used
C	x32010
F	x33210
G	x5543x
Am	x02210
Dm	xx0231

Intro riff
E--------------12--15--10--8-10-12---------------------------------|
B-10--12-13------------------------10--12-13-----------------------|
G-----------10-------------------------------10---9----------------|
D----------------------------------------------------10------------|
A------------------------------------------------------------------|
E------------------------------------------------------------------|
[ Tab from: http://www.guitartabs.cc/tabs/j/john_frusciante/this_cold_tab_ver_2.html ]
Solo after 1:35
E------------------------------------------------------------------|
B-10--8--10------10--8--10-----10--8--10---------------------------|
G------------9-------------9-------------9--10--12-10-9----9-------|
D-------------------------------------------------------10---9h10--|
A------------------------------------------------------------------|
E------------------------------------------------------------------|

Verse
Am - F - C - G
I don't need a ride to arrive
I don't feel approached any time

Chorus
Dm - Am -C - G
If you feel a fader on a decline
Out of all you've ever been
And you won't need time
You never need time

Verse
Am - F - C - G
I don't need every God
You see every ghost am I

Chorus
Dm - Am -C - G
Have we found a phase to be out of
Transfer all your thoughts to me
And you won't need love
We don't need love

Verse
Am - F - C - G
I don't need this sin to go
Down to where all forevers flow

Chorus
Dm - Am -C - G
Every fate released is revealed slow
Never talking back to me
Say it out loud

Outro
F - G - Am -Am
I feel this cold
I never stay and I never go
Comments