John Frusciante - This Cold Chords & Tabs

 

This Cold Chords & Tabs

John Frusciante Chords & Tabs

Version: 1 Type: Tab 0 ratings
1 star 2 stars 3 stars 4 stars 5 stars
comments

This Cold Tab

   
John Frusciante
This cold
By Stephen Mc Carthy
Standard tuning (EADGBe)

Chords troughout verse
  Am  F   C   G
|-5---1---0---3-|
|-5---1---1---3-|
|-5---2---0---4-|
|-7---3---2---5-|
|-7---3---3---5-|
|-5---1---x---3-|

Intro
|-------------------12-15--7h8-12-8-|----------------------|
|-10----12-13-----------------------|-10----12-13----------|
|-------------10--------------------|-------------10---9---|
|-----------------------------------|-------------------10-|
|-----------------------------------|----------------------|
|-----------------------------------|----------------------|
[ Tab from: http://www.guitartabs.cc/tabs/j/john_frusciante/this_cold_tab.html ]
Verse end
  Dm   Am    C   G   
|-1-1--0-0--0-0--3-3-|
|-3-3--1-1--1-1--0-0-|
|-2-2--2-2--0-0--0-0-|x2
|-0-0--2-2--2-2--0-0-|
|-x-x--0-0--3-3--2-2-|
|-x-x--x-x--x-x--3-3-|

Ifeel this cold...
  F        G        Am
|-1-1-1-1--3-3-3-3--5-5-5-5-|
|-1-1-1-1--3-3-3-3--5-5-5-5-|
|-2-2-2-2--4-4-4-4--5-5-5-5-|x5
|-3-3-3-3--5-5-5-5--7-7-7-7-|
|-3-3-3-3--5-5-5-5--7-7-7-7-|
|-1-1-1-1--3-3-3-3--5-5-5-5-|

Outro
|---------------------------------------------------------------------------|
|-10--8--10-------10-8-10--------10--8--10----------------------------------|
|-----------9--------------9----------------9--8b9-10-12-10-----9-----------|
|------------------------------------------------------------10---10--9bu10-|
|---------------------------------------------------------------------------|
|---------------------------------------------------------------------------|
Comments