John Frusciante - The Will To Death Chords & Tabs

 

The Will To Death Chords & Tabs

John Frusciante Chords & Tabs

Version: 6 Type: Tab 0 ratings
1 star 2 stars 3 stars 4 stars 5 stars
comments

The Will To Death Tab

   
---------------------------------------------------------------------
The Will To Death - John Frusciante
---------------------------------------------------------------------
Tabbed by: j_butterfly
Email: citizenofcork@hotmail.com

Tuning: EADGBe

Verses
    E  B  F#m A
e|------------------------------------------------------------------|
B|--9--7--2---5-----------------------------------------------------|
G|--9--8--2---6-----------------------------------------------------|
D|--9--9--4---7-----------------------------------------------------|
A|--7--9--4---7-----------------------------------------------------|
E|-----7--2---5-----------------------------------------------------|

Bridge
    F#m E  B
e|------------------------------------------------------------------|
B|--2---0--4--------------------------------------------------------|
G|--2---1--4--------------------------------------------------------|
D|--4---2--4--------------------------------------------------------|
A|--4---2--2--------------------------------------------------------|
E|--2---0-----------------------------------------------------------|
[ Tab from: http://www.guitartabs.cc/tabs/j/john_frusciante/the_will_to_death_tab_ver_6.html ]
Solo
e|------------------------------------------------------------------|
B|--12--10--9--------9--12--10--9---------9--10---------------------|
G|-------------9--9----------------9--11---------9--9--9--11--------|
D|------------------------------------------------------------------|
A|------------------------------------------------------------------|
E|------------------------------------------------------------------|

e|------------------------------------------------------------------|
B|--12--10--9--------9--12--10--9---------9--10----------9----------|
G|-------------9--9----------------9--11---------9--8h9-----9-------|
D|------------------------------------------------------------------|
A|------------------------------------------------------------------|
E|------------------------------------------------------------------|

e|------9-----------------9-----------------9-----------------------|
B|--12-----12--10--9--12-----12--10--9--12-----12--10--9--10--9--10-|
G|------------------------------------------------------------------|
D|------------------------------------------------------------------|
A|------------------------------------------------------------------|
E|------------------------------------------------------------------|

e|------------------------------------------------------------------|
B|---------9--10--9---------9--9------9/11--------------------------|
G|--11--9------------11--9--------11--------------------------------|
D|------------------------------------------------------------------|
A|------------------------------------------------------------------|
E|------------------------------------------------------------------|

| /  slide up
| h  hammer-on
=====================================================================
Comments