John Frusciante - The Will To Death Chords & Tabs

 

The Will To Death Chords & Tabs

John Frusciante Chords & Tabs

Version: 5 Type: Tab 0 ratings
1 star 2 stars 3 stars 4 stars 5 stars
comments

The Will To Death Tab

   
Artist: John Frusciante
Song:   The Will to Death

By Vaughan Jones

Please visit www.jftab.com for excellent links to all John Frusciante material

Other tabs are in the right key but the chords are in the wrong position... these sound 
but you can vary them from time to time especially on the chorus

Intro
     E   B  F#  A     E  B  A
E |--7---7--9---5-----7--7--5-------------------|
B |--9---7--10--5-----9--7--5-------------------|
G |--9---8--11--6-----9--8--6-------------------|    x2
D |--9---9--11--7-----9--9--7-------------------|
A |--7---9--9---7-----7--9--7-------------------|
E |--7---7--9---5-----7--7--5-------------------|

Verse
     E   B  F#  A     E  F# A
E |--7---7--9---5-----7--7--5-------------------|
B |--9---7--10--5-----9--7--5-------------------|
G |--9---8--11--6-----9--8--6-------------------|    x2
D |--9---9--11--7-----9--9--7-------------------|
A |--7---9--9---7-----7--9--7-------------------|
E |--7---7--9---5-----7--7--5-------------------|

Chorus
     F#  E  A
E |--9---7--5---------------|
B |--10--9--5---------------|
G |--11--9--6---------------|    x2
D |--11--9--7---------------|
A |--9---7--7---------------|
E |--9---7--5---------------|

Solo
[ Tab from: http://www.guitartabs.cc/tabs/j/john_frusciante/the_will_to_death_tab_ver_5.html ]
E-------------------------------------------------------------|
B-----12--12--10--9--5---7-9---12--10--9--5--7--9--7----------|
G-----------------------------------------------------9-/-11--|
D-------------------------------------------------------------|
A-------------------------------------------------------------|
E-------------------------------------------------------------|

E--------------------------------------------------------------|
B----12--12--10--9--5--7-9----12--10--9--5--7--9--7--------9---|
G---------------------------------------------------9--8/9---9-|
D--------------------------------------------------------------|
A--------------------------------------------------------------|
E--------------------------------------------------------------|

E--------------------------------------------------------------|
B---12-14-12-10-9---12-14-12-10-9---12-14-12-10-9-10-----------|
G--------------------------------------------------------------|
D--------------------------------------------------------------|
A--------------------------------------------------------------|
E--------------------------------------------------------------|

E--------------------------------------------------------------|
B---9-10-9-7-5----9-10-9-7-5-/9-/5-/7~~------------------------|
G--------------------------------------------------------------|
D--------------------------------------------------------------|
A--------------------------------------------------------------|
E--------------------------------------------------------------|


The solo is in E but with two guitars...

1st is playing what I belive is the above

2nd plays the bass notes on the scale... I will try to work them out some other time

Thanks for looking
Comments