John Frusciante - The Will To Death Chords & Tabs

 

The Will To Death Chords & Tabs

John Frusciante Chords & Tabs

Version: 2 Type: Tab 0 ratings
1 star 2 stars 3 stars 4 stars 5 stars
comments

The Will To Death Tab

   
This is the basic riff for the song. I have left out the chorus as i'm not sure how it 
Enjoy!

E      x7999x
B      x2444x
F#m     44222
       x7765x
[ Tab from: http://www.guitartabs.cc/tabs/j/john_frusciante/the_will_to_death_tab_ver_2.html ]
e|--x--x-x----x-x----2--2-2----x-x-------------|
B|--9--9-9----4-4----2--2-2----5-5-------------|
G|--9--9-9----4-4----2--2-2----6-6-------------|
D|--9--9-9----4-4----4--4-4----7-7-------------|
A|--7--7-7----2-2----4--4-4----7-7-------------|
E|--x--x-x----x-x--------------x-x-------------|


e|--x--x-x----x-x----2--2-2-2-2-2-------------|
B|--9--9-9----4-4----2--2-2-2-2-2-------------|
G|--9--9-9----4-4----2--2-2-2-2-2-------------|
D|--9--9-9----4-4----4--4-4-4-4-4-------------|
A|--7--7-7----2-2----4--4-4-4-4-4-------------|
E|--x--x-x----x-x-----------------------------|
Comments