John Frusciante - The First Season Chords & Tabs

 

The First Season Chords & Tabs

John Frusciante Chords & Tabs

Version: 3 Type: Tab 0 ratings
1 star 2 stars 3 stars 4 stars 5 stars
comments

The First Season Tab

   
#----------------------------------PLEASE NOTE--------------------------------#
#This file is the author's own work and represents their interpretation of the#
#song. You may only use this file for private study, scholarship, or research.#
#-----------------------------------------------------------------------------#

John Frusciante
The First Season

Tabbed by Andres (www.geocities.com/clubtabz)

Hey!
This is a great song by my favorite artist!

Tunning: Eb Bb Gb Db Ab Eb

Only chord progressions for this song, since an acoustic guitar
is all there is to it

PART 1
    E   C#m A   B   C#m
Eb--0---4---0---2---4-----0---4---0---2---4----
Bb--0---5---2---4---5-----0---5---2---4---5----
Gb--1---6---2---4---6-----1---6---2---4---6----
Db--2---6---2---4---6-----2---6---2---4---6----
Ab--2---4---0---2---4-----2---4---0---2---4----
Eb--0---------------------0--------------------

    A   B   C#m               B   Amaj7 Emaj7/sus4
Eb--5---7---4---5---7---4-----7---4-----4------
Bb--5---7---5---5---7---5-----7---2-----4------
Gb--6---8---6---6---8---6-----8---2-----2------
Db--7---9---6---7---9---6-----9---2-----2------
Ab--7---9---4---7---9---4-----9---0-----0------
Eb--5---7-------5---7---------7----------------


    E   C#m A   B   C#m
Eb--0---4---0---2---4-----0---4---0---2---4----
Bb--0---5---2---4---5-----0---5---2---4---5----
Gb--1---6---2---4---6-----1---6---2---4---6----
Db--2---6---2---4---6-----2---6---2---4---6----
Ab--2---4---0---2---4-----2---4---0---2---4----
Eb--0---------------------0--------------------
[ Tab from: http://www.guitartabs.cc/tabs/j/john_frusciante/the_first_season_tab_ver_3.html ]
    A   B   C#m   B   Amaj7
Eb--5---7---4-----7---4------------------------
Bb--5---7---5-----7---2------------------------
Gb--6---8---6-----8---2------------------------
Db--7---9---6-----9---2------------------------
Ab--7---9---4-----9---0------------------------
Eb--5---7---------7----------------------------



PART 2
    F#m A   F#m A   E Emaj7
Eb--2---5---2---5-----4----
Bb--2---5---2---5---9-4----
Gb--2---6---2---6---9-4----
Db--4---7---4---7---9-2----
Ab--4---7---4---7---7------
Eb--2---5---2---5----------

Eb--2---5---2---5---2---5--------
Bb--2---5---2---5---2---5---9----
Gb--2---6---2---6---2---6---9----
Db--4---7---4---7---4---7---9----
Ab--4---7---4---7---4---7---7----
Eb--2---5---2---5---2---5--------

Eb--2---0---2---0---2---0--------
Bb--2---2---2---2---2---2---9----
Gb--2---2---2---2---2---2---9----
Db--4---2---4---2---4---2---9----Play this twice
Ab--4---0---4---0---4---0---7----
Eb--2-------2-------2------------

   F#m  E   F#m C#m
Eb--2-------2---4----------------
Bb--2---9---2---5----------------
Gb--2---9---2---6----------------
Db--4---9---4---6----------------
Ab--4---7---4---4----------------
Eb--2-------2--------------------
"Take it the slow way..."


Eb--2---0---2---0---2---0--------
Bb--2---2---2---2---2---2---9----
Gb--2---2---2---2---2---2---9----
Db--4---2---4---2---4---2---9----
Ab--4---0---4---0---4---0---7----
Eb--2-------2-------2------------
"Leave my lonely mind..."

    F#m E   F#m C#m B6  Amaj7 C#m B6  Amaj7
Eb--2-------2---4---4---4-----4---4---4----
Bb--2---9---2---5---4---2-----5---4---2----
Gb--2---9---2---6---4---2-----6---4---2----
Db--4---9---4---6---4---2-----6---4---2----
Ab--4---7---4---4---2---0-----4---2---0----
Eb--2-------2------------------------------
               "My cell of space that holds me..."



END
    E   Emaj7
Eb--0-------0-------0-----------------
Bb--0---4---0---4---0---4--------9----
Gb--1---4---1---4---1---4-------9-----
Db--2---2---2---2---2---2------9------
Ab--2-------2-------2---------7-------
Eb--0-------0-------0-----------------

Send questions and comments to la_laker83@hotmail.com
Enjoy it!
Comments