John Frusciante - Regret Chords & Tabs

 

Regret Chords & Tabs

John Frusciante Chords & Tabs

Version: 2 Type: Tab 0 ratings
1 star 2 stars 3 stars 4 stars 5 stars
comments

Regret Tab

   
"Regret" tab by John Frusciante.

From the album "Shadows Collide With People."

Standard Tuning (e-A-D-G-B-E)

Intro
  C
e|-----------------|---------------|---------------|----------------|
B|---------1-------|-------1-------|-------1-------|-------1--------|
G|-------0---0-----|-----0---0-----|-----0---0-----|-----0---0------|
D|-----2-------2---|---2-------2---|---2-------2---|---2-------2----|
A|-3-3-----------3-|-3-----------3-|-3-----------3-|-3-----------3--|
E|-----------------|---------------|---------------|----------------|

  Am             C                 Am                C
e|--------0----|-------------0---|-------------0---|-------------0--|
B|-------1--1--|-----------1---1-|-----------1---1-|-----------1----|
G|-----2-------|---------0-------|---------2-------|---------0------|
D|---2---------|-------2---------|-------2---------|-------2--------|
A|-0-----------|-0-2-3-----------|-3-2-0-----------|-0-2-3----------|
E|-------------|-----------------|-----------------|----------------|
[ Tab from: http://www.guitartabs.cc/tabs/j/john_frusciante/regret_tab_ver_2.html ]
   G                 F                     Am
e|-------------3---|-------------1-------|-----0-----0-----0-----0--|
B|-----------3---3-|-----------1---1-----|-----1-----1-----1-----1--|
G|---------0-------|---------2-------2---|-----2-----2-----2-----2--|
D|-------0---------|-------3-----------3-|-2-2-2-2-2-2-2-2-2-2-2-2--|
A|-----------------|---------------------|-0-0-0-0-0-0-0-0-0-0-0-0--|
E|-3-2-3-----------|-3-2-1---------------|--------------------------|

Part I
"I regret my past"

C  G  Esus4 F - G
Am G  Esus4 F - G

Part II
"Stay alone, stay alone"

F  C - G
F  E

Chords Used
     C      Am       G       F     Esus4
e|---0--|---0--|---3---|---1---|---0---|
B|---1--|---1--|---3---|---1---|---0---|
G|---0--|---2--|---0---|---2---|---2---|
D|---2--|---2--|---0---|---3---|---2---|
A|---3--|---0--|---2---|---1---|---2---|
E|-------|-------|---3---|---1---|---0---|
Comments