John Frusciante - Past Recedes Chords & Tabs

 

Past Recedes Chords & Tabs

John Frusciante Chords & Tabs

Version: 2 Type: Tab

Past Recedes Tab

John Frusciante - The Past Recedes
Solo ( Sounds exactly the same i'd say it is 90 percent accurate :p )
Tabbed by eliort88

E|-10-8-8h10p8---7-7h8p7-5------3-2-3-7-5-----------------------|
B|----------------------------------------8-7-8----7-5-3h5p3----|
G|-----------------------------------------------------------4--|
D|--------------------------------------------------------------|
A|--------------------------------------------------------------|
E|--------------------------------------------------------------|

[ Tab from: http://www.guitartabs.cc/tabs/j/john_frusciante/past_recedes_tab_ver_2.html ]
E|---------------------------------------|
B|-4-2-4-2h4p2---0--0-----0--------------|
G|-----------------4--------4-2-0-2-4----|
D|-----------------4--------4-2-0-2-4----|
A|---------------------------------------|
E|---------------------------------------|


E|------------------------7-5h7p5-----------10-10---12b-12b-12b-12--14b-14--|b
B|---------------------8----------8----8------------------------------------|
G|----4---7---5h7p5-4-------------------------------------------------------|
D|--5---5-------------------------------------------------------------------|
A|--------------------------------------------------------------------------|
E|--------------------------------------------------------------------------|