John Frusciante - Mirror Chords & Tabs

 

Mirror Chords & Tabs

John Frusciante Chords & Tabs

Version: 1 Type: Tab 0 ratings
1 star 2 stars 3 stars 4 stars 5 stars
comments

Mirror Tab

Artist: John Frusciante
Song: The Mirrior
Album: Will to death
Tuning: Standard

Tabbed By Knut Zetterstrøm


Intro:
e|-5-----5---------------------------------------|
B|-----5-------------|PLAY THIS 8 TIMES|---------|
G|---5-------------------------------------------|
D|-----------------------------------------------|
A|-----------------------------------------------|
E|-----------------------------------------------|

Verse:
e|-5-----5--5-----5--5-----5--5-----5--5------5--5------5--5------5----|
B|-----5--------5--------5--------5---------6---------6---------6------|
G|---5--------5--------5--------5---------5---------5---------5--------|
D|---------------------------------------------------------------------|
A|---------------------------------------------------------------------|
E|---------------------------------------------------------------------|
[ Tab from: http://www.guitartabs.cc/tabs/j/john_frusciante/mirror_tab.html ]
e|-5------5--7------7--7------7--3------3--3------3--3------3--3-----3-|
B|------6---------8---------8---------3---------3---------5--------5---|
G|----5---------7---------7---------4---------4---------5--------5-----|
D|---------------------------------------------------------------------|
A|---------------------------------------------------------------------|
E|---------------------------------------------------------------------|

e|-3-----3--3-----5------------|
B|-----5--------5--------------|
G|---5--------5----------------|
D|-----------------------------|
A|-----------------------------|
E|-----------------------------|

Chours:

e|-1--1--1-1---3--3--3-3---0--0---0--0---0--0--0-0--------|
B|-1--1--1-1---3--3--3-3---1--1---1--1---1--1--1-1--------|
G|-2--2--2-2---0--0--0-0---0--0---0--0---2--2--2-2--------|
D|-3--3--3-3---0--0--0-0---2--2---2--2---2--2--2-2--------| X 2
A|-3--3--3-3---2--2--2-2---3--3---2--2---0--0--0-0--------|
E|-1--1--1-1---3--3--3-3---x--x---x--x--------------------|


e|-1--1--1-1---3--3--3-3---0--0---0--0---0--0--0-0--------|
B|-3--3--3-3---3--3--3-3---1--1---1--1---1--1--1-1--------|
G|-2--2--2-2---0--0--0-0---0--0---0--0---2--2--2-2--------|
D|-0--0--0-0---0--0--0-0---2--2---2--2---2--2--2-2--------|
A|-------------2--2--2-2---3--3---2--2---0--0--0-0--------|
E|-------------3--3--3-3---x--x---x--x--------------------|


That's it! A wonderfull song by John Frusciante! The chours ain't perfect, and I
haven't set up the song order, but I'll think you can figure it out yorself;) If
you have any questions, E-mail me at eg_e_meg@hotmail.com  Havne a nice day everybody!
Comments