John Frusciante - Goals Chords & Tabs

 

Goals Chords & Tabs

John Frusciante Chords & Tabs

Version: 1 Type: Tab 0 ratings
1 star 2 stars 3 stars 4 stars 5 stars
comments

Goals Tab

   
Song Name: Goals
Artist: John Frusciante
Tab by: still_snoring_loudly@Yahoo.ie

The rhythm isn't exactly right but its easy enough to figure out anyway.
I'm not to sure of the names of two chords but this is what i called
them:

 C*     F*
-0-    -1-|
-1-    -1-|
-0-    -2-|
-2-    -2-|
-2-    -2-|
---    -1-|


 C              F
1.Sucking on a rhyme
2.One thing about a life
-0---0--0---0--1--1--1--1-|
-1---1--1---1--1--1--1--1-|
-0---0--0---0--2--2--2--2-|
-2---2--2---2--3--3--3--3-|
-3---3--3---3--3--3--3--3-|
---------------1--1--1--1-|

        C                     Am
1.  You know i don't feel right
2.It's an endless straight line
   -----0----0----0----0------0--0--0--0-|
   -----1----1----1----1------1--1--1--1-|
   -----0----0----0----0------2--2--2--2-|
   -----2----2----2----2------2--2--2--2-|
   -----3----3----3----3------0--0--0--0-|
   --------------------------------------|

         C                        F
1. These dreams the steal all my time
2. The   dreams  I    once   had
        -0-------0-----0-----0----1--1--1--1-|
        -1-------1-----1-----1----1--1--1--1-|
        -0-------0-----0-----0----2--2--2--2-|
        -2-------2-----2-----2----3--3--3--3-|
        -3-------3-----3-----3----3--3--3--3-|
        --------------------------1--1--1--1-|

           C                Am
1.  They take it from my eyes
2.They've taken me for a ride
      -----0----0---0---0---0--0--0--0-|
      -----1----1---1---1---1--1--1--1-|
      -----0----0---0---0---2--2--2--2-|
      -----2----2---2---2---2--2--2--2-|
      -----3----3---3---3---0--0--0--0-|
      ---------------------------------|

  F                         G7                     C     C*     Am
1.I don't try as much to feel       Anything these days
2.Just show me the way to leave     That's all I need
 -1-------1------1------1---1---1---1---1-----------0-----0-----0-0-|
 -1-------1------1------1---0---0---0---0-----------0-----0-----1-1-|
 -2-------2------2------2---0---0---0---0-----------0-----0-----2-2-|
 -3-------3------3------3---0---0---0---0----------2-----2-----2--2-|
 -3-------3------3------3---2---2---2---2---------3---3-2---2-0---0-|
 -1-------1------1------1---3---3---3---3---------------------------|
[ Tab from: http://www.guitartabs.cc/tabs/j/john_frusciante/goals_tab.html ]
  F                           G7                     C     C*     Am
1.I will try and reach the field  And there i will stay
2.Where I don't notice anything   That's where I will be
 -1-------1------1------1-----1---1---1---1----------0-----0-----0-0-|
 -1-------1------1------1-----0---0---0---0----------0-----0-----1-1-|
 -2-------2------2------2-----0---0---0---0----------0-----0-----2-2-|
 -3-------3------3------3-----0---0---0---0---------2-----2-----2--2-|
 -3-------3------3------3-----2---2---2---2--------3---3-2---2-0---0-|
 -1-------1------1------1-----3---3---3---3--------------------------|

   F               G7                     C        C*        Am
1. No time comes to me now     There's nothing i'm for or opposed to
2. Life doesn't come to me now        And I wouldn't want it to
  -1---1---1---1---1---1---1---1----------0--------0--------0-0--------|
  -1---1---1---1---0---0---0---0----------0--------0--------1-1--------|
  -2---2---2---2---0---0---0---0----------0--------0--------2-2--------|
  -3---3---3---3---0---0---0---0---------2--------2--------2--2--------|
  -3---3---3---3---2---2---2---2--------3------3-2------2-0---0--------|
  -1---1---1---1---3---3---3---3---------------------------------------|

           F          F*       Dm
1.There's nothing i'm really supposed to do
2.There's nothing I'd like to do
          -1--1-------1--1-----1-------1-|
          -1--1-------1--1-----3-------3-|
          -2--2-------2--2-----2-------2-|
          -3--3-------2--2-----0-------0-|
          -3--3-------2--2---------------|
          -1--1-------1--1---------------|

 G7                                C    C*   Am   F    C    F    C
1.               Goals disrupt the past.
2.               Goals disrupt the past.
-1---1---1---1---1-----1---1---1---0-0--0-0--0-0--1-1--0-0--1-1--0-|
-0---0---0---0---0-----0---0---0---1-1--1-1--1-1--1-1--1-1--1-1--1-|
-0---0---0---0---0-----0---0---0---0-0--0-0--2-2--2-2--0-0--2-2--0-|
-0---0---0---0---0-----0---0---0---2-2--2-2--3-3--3-3--2-2--3-3--2-|
-2---2---2---2---2-----2---2---2---3-3--2-2--0-0--3-3--3-3--3-3--3-|
-3---3---2---2---2-----2---2---2------------------1-1-------1-1----|

       C         F     C
There's nothing i realise
-------0---------1-----0-|
-------1---------1-----1-|
-------0---------2-----0-|
-------2---------3-----2-|
-------3---------3-----3-|
-----------------1-------|

        F   F*    Dm
There's no one i despise
--------1---1-----1-----|
--------1---1-----3-----|
--------2---2-----2-----|
--------3---2-----0-----|
--------3---2-----------|
--------1---1-----------|

C          F       C
Nothing to hide behind
0----------1-------0--|
1----------1-------1--|
0----------2-------0--|
2----------3-------2--|
3----------3-------3--|
-----------1----------|

     G    G7   C

This time
-----3----1----0-|
-----0----0----1-|
-----0----0----0-|
-----0----0----2-|
-----2----2----3-|
-----3----3------|


It's not a difficult song to play but the rhythm is important in it.
Any comments or suggestions mail them to me at
still_snoring_loudly@yahoo.ie
Comments