John Frusciante - Enter A Uh Chords & Tabs

 

Enter A Uh Chords & Tabs

John Frusciante Chords & Tabs

Version: 1 Type: Tab 0 ratings
1 star 2 stars 3 stars 4 stars 5 stars
comments

Enter A Uh Tab

   
by John Frusciante
from "Smile from the streets you hold"


Riff A
------------------------------|------------------------------|--
-----9--9-9--9-9--------------|-------9----9-9---------------|--
-----9-9-9-9-9-9--------------|------9-9--9-9----------------|--
----------------------9---11--|------------------9--11--9----|--
-------------------11-----11--|---------------------11-------|--
-9----------------------------|--9-------------------------0-|--


          */*/*/*/*/*/*/*/*/*/*/*/*/*/*/*/*/*/*/*/*/*/*/*/

                                                                              
Riff B
------5------2-----------|--
-----------2-----2-------|--
-------------------------|--
-------------------------|--
---------------0---------|--
-2-2-----------------0/2-|--


          */*/*/*/*/*/*/*/*/*/*/*/*/*/*/*/*/*/*/*/*/*/*/*/


Riff C
-------------------------------------|-------------------|
-----7-------------------------------|-------------------|
-------9-----------------------------|-------------------|
-------------------------------------|--7-9--------------|
----------7/9-9-9-9---5--7/9-9-9-9---|-------7/9-9-9-9---|
-------------------------------------|-------------------|


          */*/*/*/*/*/*/*/*/*/*/*/*/*/*/*/*/*/*/*/*/*/*/*/

[ Tab from: http://www.guitartabs.cc/tabs/j/john_frusciante/enter_a_uh_tab.html ]
Riff D
----------------------------------------------------------------------
----------------------------------------------------------------------
----------------------------------------------------------------------
----------------------------------------------------------------------
--7/9-9-9--5--5-------------5-5-5-5-8-8-8-8--9-9-9/12-11----9-7-7---9-
----------------5-5--9-9-9-------------------------------------------- 
|
---------------------|----------------------------------------------
---------------------|----------------------------------------------
---------------------|----------------------------------------------
---------------------|--10-11-13-14--16--16-16----------------------
--9\5--5--4-4/12-12--|---------------------------8-9-11-12-12-12----
---------------------|----------------------------------------------
|
--------------------------|
--------------------------|
------1/2-2---------------|
--------------------------|
--------------------------|
-2--2--------1-2-4--5--8--|


          */*/*/*/*/*/*/*/*/*/*/*/*/*/*/*/*/*/*/*/*/*/*/*/


Riff E
----------------------------------|
----------------------------------|
----------------------------------|
------2h4p2--------------2p0------|
-----------5--5-------------4--4--|
-2-2--------------2-2-------------|


          */*/*/*/*/*/*/*/*/*/*/*/*/*/*/*/*/*/*/*/*/*/*/*/


Riff F
---------2------|
----------------|
----------------|
------4---------|
----------------|
--2----------2--|


          */*/*/*/*/*/*/*/*/*/*/*/*/*/*/*/*/*/*/*/*/*/*/*/


Riff G
------------------------------2--0--2--0--2--------------------------------|
-------------------2h5p2h5p2-----------------------------------------------|
-----------2----------------------------------------------4p2h4p2hp--------|
-----2--4------4-------------------------------------2/4-------------------|
--4----------------------------------------------4-------------------------|
---------------------------------------------------------------------------|


          */*/*/*/*/*/*/*/*/*/*/*/*/*/*/*/*/*/*/*/*/*/*/*/


Ending
--0-2-5--0-2-5---7-5-4-5---2-0-2-2---------------|
-------------------------------------------------|
-------------------------------------------------|
-------------------------------------------------|
-------------------------------------------------|
-----------------------------------------
Comments