John Frusciante - Chances Chords & Tabs

 

Chances Chords & Tabs

John Frusciante Chords & Tabs

Version: 2 Type: Tab 0 ratings
1 star 2 stars 3 stars 4 stars 5 stars
comments

Chances Tab

chorus
e|----------------------------|
B|--7-7-7---4-4-4---6-6-6---1-|
G|--8-8-8---5-5-5---6-6-6---2-|
D|--8-8-8---6-6-6---6-6-6---3-|
A|--6-6-6---6-6-6---4-4-4---3-|
E|----------4-4-4-----------1-|
   this is the time to die....  
e|----------------------------|
B|--7-7-7---4-4-4---6-6-6---2-|
G|--8-8-8---5-5-5---6-6-6---3-|
D|--8-8-8---6-6-6---6-6-6---4-|
A|--6-6-6---6-6-6---4-4-4---4-|
E|----------4-4-4-----------2-|
	     

e|----------------------------|
B|--7-7-7---4-4-4---6-6-6---6-|
G|--8-8-8---5-5-5---6-6-6---6-|
D|--8-8-8---6-6-6---6-6-6---8-|
A|--6-6-6---6-6-6---4-4-4---8-|
E|----------4-4-4-----------6-|
[ Tab from: http://www.guitartabs.cc/tabs/j/john_frusciante/chances_tab_ver_2.html ]
e|--------------------|
B|--2-2---4-4---6--6--|
G|--3-3---5-5---6--6--|
D|--4-4---6-6---6--6--|
A|--4-4---6-6---4--4--|
E|--2-2---4-4---------|
   this is letting go.......

Verse
e|------------------|
B|--6-6-6--5-5-5-5--|x3
G|--6-6-6--5-5-5-5--| 
D|--8-8-8--6-6-6-6--|
A|--8-8-8--6-6-6-6--|
E|--6-6-6--4-4-4-4--|



e|--------------------|
B|--2-2---4-4---6--6--|
G|--3-3---5-5---6--6--|
D|--4-4---6-6---6--6--|
A|--4-4---6-6---4--4--|
E|--2-2---4-4---------|
 are you everywhere?....

verse

chorus

verse

e|--------------------|
B|--2-2---4-4---6--6--|
G|--3-3---5-5---6--6--| x 3 (with slight variations)
D|--4-4---6-6---6--6--|
A|--4-4---6-6---4--4--|
E|--2-2---4-4---------|
Comments