John Frusciante - Chances Chords & Tabs

 

Chances Chords & Tabs

John Frusciante Chords & Tabs

Version: 1 Type: Tab 0 ratings
1 star 2 stars 3 stars 4 stars 5 stars
comments

Chances Tab

   
John Frusciante
Chances
By Stephen Mc Carthy
To play this song I use a capo on the first fret. It makes more sense and
sounds much better than bar chords. I hope you enjoy!

Intro (let ring)
|-21-|
|----|
|----|
|----|
|----|
|----|

Chorus (with capo on the first fret)
  F#       D#m      Fm       A#m
|-1-1-1-1--1-1-1-1--0-0-0-0--0-0-0-0-|
|-1-1-1-1--3-3-3-3--0-0-0-0--1-1-1-1-|
|-2-2-2-2--2-2-2-2--0-0-0-0--2-2-2-2-|
|-3-3-3-3--0-0-0-0--2-2-2-2--2-2-2-2-|
|-3-3-3-3--x-x-x-x--2-2-2-2--0-0-0-0-|
|-1-1-1-1-----------0-0-0-0--x-x-x-x-|
[ Tab from: http://www.guitartabs.cc/tabs/j/john_frusciante/chances_tab.html ]
This is letting go...
  F#       D#m      C#
|-1-1-1-1--1-1-1-1--0-0-0-0-|
|-1-1-1-1--3-3-3-3--1-1-1-1-|
|-2-2-2-2--2-2-2-2--0-0-0-0-|
|-3-3-3-3--0-0-0-0--2-2-2-2-|
|-3-3-3-3--x-x-x-x--3-3-3-3-|
|-1-1-1-1-----------x-x-x-x-|

Verse (I feel the tightening of the dawn..)
  A#m      G#       Fm
|-0-0-0-0--3-3-3-3--0-0-0-0-|
|-1-1-1-1--0-0-0-0--0-0-0-0-|
|-2-2-2-2--0-0-0-0--0-0-0-0-|
|-2-2-2-2--0-0-0-0--2-2-2-2-|
|-0-0-0-0--2-2-2-2--2-2-2-2-|
|-x-x-x-x--3-3-3-3--0-0-0-0-|

Are you everywhere..
  F#       D#m      C#
|-1-1-1-1--1-1-1-1--0-0-0-0-|
|-1-1-1-1--3-3-3-3--1-1-1-1-|
|-2-2-2-2--2-2-2-2--0-0-0-0-|
|-3-3-3-3--0-0-0-0--2-2-2-2-|
|-3-3-3-3--x-x-x-x--3-3-3-3-|
|-1-1-1-1-----------x-x-x-x-|

The rest of the song goes, Verse, Chorus and, finally verse
Comments