John Frusciante - Beginning Again Chords & Tabs

 

Beginning Again Chords & Tabs

John Frusciante Chords & Tabs

Version: 1 Type: Tab 0 ratings
1 star 2 stars 3 stars 4 stars 5 stars
comments

Beginning Again Tab

4/4
 I Know your a slave kid
|-0-------------2-------------|
|-0-------------3-------------|
|-0-------------2-------------|
|-2-------------0-------------|
|-2-------------0-------------|
|-0---------------------------|

    And you were my slut
|-0---------------2-----------|
|-0---------------3-----------|
|-0---------------2-----------|
|-2---------------0-----------|
|-2---------------0-----------|
|-0---------------------------|
[ Tab from: http://www.guitartabs.cc/tabs/j/john_frusciante/beginning_again_tab.html ]
      Bleed in my blood
|-0--------------2------------|
|-0--------------3------------|
|-0--------------2------------|
|-2--------------0------------|
|-2--------------0------------|
|-0---------------------------|

You'll be on both ends
|-0----------------------------0-----------|
|-0----------------------------1-----------|
|-2----------------------------0-----------|
|-2----------------------------2-----------|
|-0----------------------------3-----------|
|--------------------------0-2-3-----------|


(End)
    no (ho) now(ow) it swears to be full
|-0------3------2------0----|
|-0------0------3------1----|
|-0------0------2------2----|
|-2------0------1------2----|
|-2------2------1------0----|
|-0------3------------------|
Comments